Oops, an error
Loading. Please wait.

Young Man Blues Live tab

version 4
version 4

Whole song

Interactive

by The Who
112 views 1 this week
no commentswrite comment
1 2 3 4 5
2 more votes to show rating
add to favorites
×
Save as Personal and add changes to this tab that will be seen only by you. Learn more ›
×
You can save this tab as Personal to edit and correct it or add notes. All changes will be seen only by you. Learn more »
launch autoscroll
font size
0
reset
how to read this tab
guitar tuner
backing track
0:00
0:00
edit
Autoscroll
slow
fast
+/-
esc
set tempo
stop
Author
Difficulty
YOUNG MAN BLUES (Live)

As recorded by The Who
(From the 1970 Album LIVE AT LEEDS)

Words and Music by Mose Allison
Arranged by The Who

Transcribed by Slowhand


Gtr I (E A D G B E) - 'Pete Townshend - Electric Guitar '


 Intro
  Q=178
  N.C.
 4/4
  Gtr I
  H    Q  E E   E E Q  S S E Q    S S E q  Q.   E
|-------------|-----------------|-----------------|
|-------------|-3-2-0-----------|-----------------|
|-----------2-|-4-2-0-----------|-----------------|
|-----------2-|-----0--2p0---0--|-2p0---0--2----2-|
|-------------|------------2----|-----2-----------|
|-------------|-----------------|-----------------|


  E E Q  S S E Q    S S E Q      H
|-----------------|-------------------||
|-3-2-0-----------|-------------------||
|-4-2-0-----------|-------------------||
|--------2p0---0--|-2p0---------------||
|------------2----|-----2-------------||
|-----------------|-------3b3.5--0----||


 1st Verse
  Bmadd11/E                                          N.C.
                         3/4      4/4        3/4
  Q  Q  H      W          W        W          H    E E
|------------:----------:--------|----------|------------|
|-3----------:----------:--------|----------|------------|
|-4----------:----------:--------|----------|------------|
|-2----------:----------:--------|----------|--------2---|
|-2----------:----------:--------|----------|------------|
|-0----------:----------:--------|----------|------------|


                                      G5        Em11
 4/4
  S S E Q  H      E E Q  E E Q    E E Q  H      Q  Q  H
|---------------|---------------|-------------|------------:
|---------------|---------------|-------------|-8----------:
|-------0--2----|-0---0--2---0--|-2---0-------|-7----------:
|-2p0---0--2----|-0---0--2---0--|-2-x-0--2----|-7----------:
|-----2----0----|---------------|-------------|-7----------:
|---------------|---3------3----|-----3--0----|-0----------:


                                 N.C.
                       3/4      4/4
  W          W          W        S S E Q  E E Q
|----------:----------|--------|-----------------|
|----------:----------|--------|-----------------|
|----------:----------|--------|-------0--2---0--|
|----------:----------|--------|-2p0---0--2---0--|
|----------:----------|--------|-----------------|
|----------:----------|--------|-----3------3----|


                    D5/E       D5   A5        Em7
  E E Q   H       E Q.   +E  E Q    Q  Q      H      +Q   Q     +H
|---------------|-----------------|-----------3----|-(3)------------------:
|---------------|---3----(3)---3--|-----------3----|-(3)------------------:
|-2-------------|---2----(2)---2--|-2---------0----|-(0)------------------:
|-2-x-----------|---2----(2)---0--|-2---------2----|-(2)--2tr0--(2tr0)----:
|--------(0)----|-----------------|-0---------x----|-(x)------------------:
|-----3---0-----|-0----------x----|----3b3.5--0----|-(0)------------------:


  +H        H      W          W          H     Q     Q    W
|----------------:----------:----------:------12--------:------|
|----------------:----------:----------:------15b17-----:------|
|----------------:----------:----------:----------------:------|
|-(2tr0)---------:----------:----------:----------------:------|
|----------------:----------:----------:----------------:------|
|----------------:----------:----------:----------------:------|


                      N.C.                              G5/A        D/A
            3/4      4/4
  W          W        S S E Q  E E Q    E E Q   H       E E E E E E Q
|----------:--------|-----------------|---------------|----------------|
|----------:--------|-----------------|---------------|-8-----8-----7--|
|----------:--------|-------0--2---0--|-2---0---------|-7-----7-----7--|
|----------:--------|-2p0---0--2---0--|-2---0---2-----|-7-----7-----7--|
|----------:--------|-----------------|--------(0)----|----------------|
|----------:--------|-----3------3----|---3-----0-----|---0-0-----0----|


  A  N.C.                   A5                     N.C.
                                            ~
                                                   |-3-| |-3-| |-3-| |-3-|
  Q  Q       H       E E Q  E E Q    E E Q  H      E E E E E E E E E E E E
|------------------|---------------|-------------|---------------------------|
|-5----------------|---------------|-------------|---------------------------|
|-6----------------|-----0--2---0--|-2---0--2----|---------------------------|
|-7----------------|-x---0--2---0--|-2---0--2----|-2p0---2p0---2p0---2p0-----|
|-----------(2)----|-x------0------|-0------0----|---------------------------|
|----3b3.5---0-----|-x-3------3----|---3---------|-----x-----x-----x-----x---|


                                   2nd Verse
               Em11                 Em11
  |-3-|
  E E E Q      H      +W            Q  Q  H      W          W          W
|--------------3----|-(3)--------||-3----------:----------:----------:------|
|--------------3----|-(3)--------||-3----------:----------:----------:------|
|--------------2----|-(2)--------||-2----------:----------:----------:------|
|-2p0----------2----|-(2)--------||-2----------:----------:----------:------|
|--------------x----|-(x)--------||-x----------:----------:----------:------|
|-----x-3b3.5--0----|-(0)--------||-0----------:----------:----------:------|


               Em7                                                G/D
                                     3/4      4/4
  W          E E Q  H      W          W        W          H    Q  Q
|----------:---3---------:----------:--------|----------|--------------||
|----------:---3---------:----------:--------|----------|---------0----||
|----------:---0---------:----------:--------|----------|---------0----||
|----------:---2---------:----------:--------|----------|---------0----||
|----------:-------------:----------:--------|----------|--------------||
|----------:-------------:----------:--------|----------|--------------||


 Guitar Solo
  A5/E                    Em11
  W          +H.      +E  E   W            +W              W
|----------|----------------|------------|---------------|------|
|----------|--------------8-|-8----------|-(8)-----------|-8----|
|----------|--------------7-|-7----------|-(7)-----------|-7----|
|-2--------|-(2)------(2)-7-|-7----------|-(7)-----------|-7----|
|-0--------|-(0)------(0)-7-|-7----------|-(7)-----------|-7----|
|-0--------|-(0)------(0)---|---------0--|--0---0--0--0--|-0----|
                              H    Q  Q     Q   Q  Q  Q    W


                  D                               E5
                                                  PM------------|
  +W              Q  Q  Q.   E   +E  E Q  Q  Q    E E E E E E E E
|---------------|--------------|----------------|------------------|
|-(8)-----------|-7--7--7----7-|-(7)-7-7--7--7--|------------------|
|-(7)-----------|-7--7--7----7-|-(7)-7-7--7--7--|------------------|
|-(7)-----------|-7--7--7----7-|-(7)-7-7--7--7--|------------------|
|-(7)-----------|-5--5--5----5-|-(5)-5-5--5--5--|-2-2-2-2-2-2-2-2--|
|-(0)--0--0--0--|--------------|----------------|-0-0-0-0-0-0-0-0--|
  +Q   Q  Q  Q


          D5 A5   E5                        D  A    E5
  PM----|         PM----------------------|         PM------------|
  E E E E Q  Q    E E E E E E E E   E E E E Q  q    E E E E E E E E
|---------------|-----------------|---------2-----|------------------|
|---------3-----|-----------------|---------3--2--|------------------|
|---------2--2--|-----------------|---------2--2--|------------------|
|---------0--2--|-----------------|---------0--2--|------------------|
|-2-2-2-2----0--|-2-2-2-2-2-2-2-2-|-2-2-2-2----0--|-2-2-2-2-2-2-2-2--|
|-0-0-0-0-------|-0-0-0-0-0-0-0-0-|-0-0-0-0-------|-0-0-0-0-0-0-0-0--|


          D5/A    E5                        Em1D/A    E5
  PM----|         PM----------------------|           PM------------|
  E E E E Q  q    E E E E E E E E   E E E E Q   q     E E E E E E E E
|---------------|-----------------|-----------------|------------------|
|---------3--2--|-----------------|---------8---7---|------------------|
|---------2--2--|-----------------|---------7---7---|-------------7-9--|
|---------0--2--|-----------------|---------7--(7)--|-----5---7---7-9--|
|-2-2-2-2-0--0--|-2-2-2-2-2-2-2-2-|-2-2-2-2-7-------|-2-2-5---7--------|
|-0-0-0-0-------|-0-0-0-0-0-0-0-0-|-0-0-0-0---------|-0-0---0---0------|


                                      N.C.         E5
  PM------------------------------|      ~         PM------------|
  E E E E E E E E   E E E E E E E E   Q  H    Q    E E E E E E E E
|-----------------|-----------------|------------|------------------|
|-----------------|---------------0-|------------|------------------|
|-------------7-9-|---------------0-|------------|-------------7-9--|
|-----5---7---7-9-|-----5---7---5-0-|-5--7-------|-----5---7---7-9--|
|-----5---7-------|-----5---7---5---|------------|-2-2-5---7--------|
|-0-0---0---0-----|-0-0---0---0-----|---------x--|-0-0---0---0------|


  PM------------------------------|
  E E E E E E E E   E E E E E E E E
|-----------------|-----------------|
|-----------------|-----------------|
|-------------7-9-|-----------------|
|-----5---7---7-9-|-----5---7---7---|
|-2-2-5---7-------|-----5---7---7---|
|-0-0---0---0-----|-0-0---0---0---0-|


  N.C.
                   |-3-| |-3-| |-3-| |-3-|
  Q      H    Q    E E E E E E E E E E E E
|----------------|---------------------------|
|----------------|---------------------------|
|----------------|---------------------------|
|----------------|-5p0---5p0---5p0---5p0-----|
|----------------|-----2-----2-----2-----2---|
|-3b3.5--0----0--|---------------------------|


  Q      H    E E   E E E E E E E E
|-----------------|-----------------|
|-----------------|-----------------|
|-----------------|-0---------------|
|-5b5.5--2----0-2-|---2-0-2-0---0---|
|-----------------|-----------------|
|-----------------|-----------3---3-|


                 |-3-| |-3--|  |-3-| |-3-|
   Q   H    Q    E E E E E  E  E E E E E E
|--------------|-----------------------------|
|--------------|-----------------------------|
|-(0)----------|-------5p0-(0)-------5p0-0---|
|--0-----------|-5p0-----------5p0-----------|
|------2-------|-----2-------------2---------|
|------0----0--|-----------------------------|


     ~~
  Q  H.        E E E E E E E E   E E E E E E E E
|------------|-----0-----0-0---|-0-0---0-0-------|
|------------|-0-3---0-3-----3-|-----3-----------|
|------------|-----------------|-----------------|
|-5--2-------|-----------------|-----------------|
|------------|-----------------|-----------------|
|------------|-----------------|-----------x-x-x-|


     Em11   D/A   A/E         Em11
  Q  H    E E   E E Q  Q      Q
|-------------|--------------------|
|----8------7-|---5-5---------0----|
|----7------7-|---6-6---------0----|
|----7------7-|---7-7---------0----|
|----x--------|---0-0---------0----|
|----0----0---|---0-0--3b3.5--0----|


                                N.C.
                                 |--3--|     |--3--|     |--3--|     |--3--|
  Q  H.        +Q   H    Q    E  S  S  S  E  S  S  S  E  S  S  S  E  S  S  S
|----3-------|-(3)--3-------|-3----------------------------------------------|
|-3--3-------|-(3)--3----3--|-3----------15----------15----------15----------|
|----2-------|-(2)--2----2--|-2-12h14h15----12h14h15----12h14h15----12h14h15-|
|----0-------|-(0)--0----0--|-0----------------------------------------------|
|----0-------|-(0)-------0--|------------------------------------------------|
|----0-------|-(0)-------0--|------------------------------------------------|


                                           ~~           ~~~~~~~~~
         |--3--|     |--3--|
   E     S  S  S  E  S  S  S  E E  E  E    Q   E  E  E  Q.
|---------------------------------------|-----12-12-------------|
|-15b17----------15----------15---------|-----------12-15b17====|
|-------12h14h15----12h14h15----x-12-12-|-----------------------|
|---------------------------------------|-14--------------------|
|---------------------------------------|-----------------------|
|---------------------------------------|-----------------------|


 ~~~~~~~
   +E    E  Q      E  Q      E    S  S  E  S  S  E  S  S  E  S  S  E
|-------12--------12-----------|-------------------------------------|
|-(15)r----15b17-----15b16--15-|-------14-------15-------15-------15-|
|------------------------------|----------12h15----12h15----12h15----|
|------------------------------|-12h14-------------------------------|
|------------------------------|-------------------------------------|
|------------------------------|-------------------------------------|


   |--3--|
   S  S  S  E  S  S  E  S  S  E  S  S  E
|----------------------------------------|
|----------15-------15-------14-------14-|
|-12h14h15----12h15----12h15----12h15----|
|----------------------------------------|
|----------------------------------------|
|----------------------------------------|


   Q        Q   +E   E  E E   E  E  E E E E E E
|---------------------------|-------------------|
|----------------------15---|----9s=7---5---2---|
|-12b12.5---------------x---|-------------------|
|----------14--(14)-14----7s|=9-(9)s7-6---2---0-|
|---------------------------|-------------------|
|---------------------------|-------------------|


                                   E7sus4   G5/A    Em1D
  Q  Q  Q   Q     +H.      +E  E   q  q  Q  Q    Q  q  q  Q
|---------------|----------------|-------------|--------------|
|---------------|----------------|----------8--|----8--7------|
|---------------|----------------|----7-----7--|----7--7------|
|----2------2---|-(2)------(2)-0-|----7-----7--|----7--7------|
|-0-------------|--------------0-|-7--7--------|----7--5--7---|
|-0-----0--(0)--|-(0)------(0)-0-|-0--0--------|----------0---|


     Em11             D/E            Em11                  D/E A
  Q  q  Q  Q    Q  Q  E E E e    Q   E E E E E E   E E E E E E q
|-------------|---------------|------------------|-----------------|
|----8-----8--|----8--7-------|------8-8-x---8-8-|---8-8-8-7-7-2---|
|----7-----7--|----7--7-------|------7-7-x---7-7-|---7-7-7-7-7-2---|
|----7-----7--|----7--7-------|-(0)--7-7-x---7-7-|---7-7-7-7-7-2---|
|----------7--|----7--5-7-7-9-|------7-7-x---7-7-|---7-7-7-5-5-0---|
|-------------|-------0-0-0-0-|------0-0-x---0-0-|---0-0-0-0-0-----|


      Em11                                   E7sus4                N.C.
                                                                     ~
  E E E E E E E E   Q  H.              Q  Q   H       +W           a W
|-----3-----3-----|-3--3-------------|--------------|------------|--------|
|-----3-----3-----|-3--3-------------|--------------|------------|--------|
|-----2-----2-----|-2--2-------------|----2---7-----|-(7)--------|--------|
|-----2-----2-----|-2--0-------------|----2--(7)----|-(7)--------|-0h2----|
|-----------------|----0----0----0---|-------(7)----|-(7)--------|--------|
|-0-0---0-0---0-0-|----0---(0)--(0)--|-0------0-----|-(0)--------|--------|
                    Q  Q    Q    Q


   ~~~
  +H     +E  S S +S  S E   S E. +H.
|------------------------|---------------|
|------------------------|---------------|
|------------0-----------|---------------|
|-(2)----(2)---2-(2)p0-2-|-0h2--(2)------|
|------------------------|---------------|
|------------------------|---------------|


                       ~~~~~~~~~~~~~~~
           |---3---|
  +H     a Q a Q a Q   W          +E  a E E E E E E E
|--------------------|----------|----------------------|
|--------------------|----------|----------------------|
|--------------------|----------|----------------------|
|-(2)----0h2-0h2-0h2-|----------|-----0h2-0---0-2-0----|
|--------------------|----------|-----------2----------|
|--------------------|-3--------|-(3)---------------3--|


  E5                        Em11/G
  W          +H.      E E   W
|----------|--------------|-3--------|
|----------|--------------|-3--------|
|----------|--------------|-2--------|
|----------|--------------|-2--------|
|-2--------|-(2)----------|----------|
|-0--------|-(0)------x-x-|-3--------|


                                       N.C.
  +W           +W            +H.       q
|-(3)--------|-(3)--------|--(3)-----------|
|-(3)--------|-(3)--------|--(3)-----------|
|-(2)--------|-(2)--------|--(2)-----------|
|-(2)--------|-(2)--------|-([2])p=====0---|
|------------|------------|----------------|
|-(3)--------|-(3)--------|--(3)-----------|


  S S E E S S E E S S E   S S E E E E E E E
|-----------------------|-------------------|
|-3h5-5-5-3h5-5-5-3h5-5-|-3h5-3-0-----------|
|-----------------------|---------3p2-------|
|-----------------------|-------------2-0-x-|
|-----------------------|-------------------|
|-----------------------|-------------------|


  S S E E S S E E S S E   E E E E E E E E
|-----------------------|-5-3-------0------|
|-3h5-5-5-3h5-5-5-3h5-3-|-----5-3-5-0------|
|-----------------------|-------------2-0--|
|-----------------------|------------------|
|-----------------------|------------------|
|-----------------------|------------------|


  S S E E S S E E S S E   E S S S S E S S S S E S S
|-----------------------|---------------------------|
|-3h5-5-5-3h5-5-5-3h5-5-|-5-3h5-5-5-5-3h5-5-5-5-3h5-|
|-----------------------|---------------------------|
|-----------------------|---------------------------|
|-----------------------|---------------------------|
|-----------------------|---------------------------|


  S S E S S S S E E E E   E E E E E E Q
|-----------------------|----------------|
|-5-5-5-3h5-5-5-5-3-5-3-|-0--------------|
|-----------------------|-0-2-0-2-0-2-0--|
|-----------------------|-----0-2-0-2-0--|
|-----------------------|----------------|
|-----------------------|----------------|


  PM      PM      PM        PM  PM
  E S S E E S S E E S S   E E E E Q      e E
|-----------------------|------------------------|
|-----------------------|------------------------|
|-----------------------|------------------------|
|---2-2-2---2-2-2---2-2-|-2---2----------2-------|
|-----------------------|------------------------|
|-0-------0-------0-----|---0---0-3b3.5----3b3.5-|


  PM      PM      PM        PM  PM
  E S S E E S S E E S S   E E E E E     S S E E
|-----------------------|------------------------|
|-----------------------|------------------------|
|-----------------------|------------------------|
|---2-2-2---2-2-2---2-2-|-2---2------------------|
|-----------------------|------------------------|
|-0-------0-------0-----|---0---0-3b3.5-x-x-3-3--|


                                    G5      Em11                    Eb/D
  PM      PM      PM        PM
  E S S E E S S E E S S   E E Q  Q  Q    Q   H.        +W           W
|-----------------------|--------------|-----3-------|-(3)--------|-3----|
|-----------------------|--------------|-----3-------|-(3)--------|-4----|
|-----------------------|-----0--0--0--|-----2-------|-(2)--------|-3----|
|---2-2-2---2-2-2---2-2-|-2---0--0--0--|-----2-------|-(2)--------|-0----|
|-----------------------|--------------|-------------|------------|------|
|-0-------0-------0-----|---0-------3--|-0--(0)------|-(0)--------|------|


  E/D        F/D        F#/D       G/D        G#/D
  W          W          W          W          W
|-4--------|-5--------|-6--------|-7--------|-8----|
|-5--------|-6--------|-7--------|-8--------|-9----|
|-4--------|-5--------|-6--------|-7--------|-8----|
|-0--------|-0--------|-0--------|-0--------|-0----|
|----------|----------|----------|----------|------|
|----------|----------|----------|----------|------|


  A/D         Bb/D         E5
                           PM---------------
   W           W           E E E E E E E E
|--9--------|-10---------|-----------------|
|-10--------|-11---------|-----------------|
|--9--------|-10---------|-----------------|
|--0--------|-(0)--------|-----------------|
|-----------|------------|-2-2-2-2-2-2-2-2-|
|-----------|------------|-0-0-0-0-0-0-0-0-|


                    Em11
 -----------|
  E E E E E E E E   H.      +Q     +H.      Q
|-----------------|-3-------(3)--|-(3)----------|
|-----------------|-3-------(3)--|-(3)----------|
|-----------------|-2-------(2)--|-(2)----------|
|-----------------|-2-------(2)--|-(2)----------|
|-2-2-2-2-2-2-----|--------------|--------------|
|-0-0-0-0-0-0-0-0-|-0-------(0)--|-(0)----------|


     D/F#     A/E                   G/D
  Q   Q   +E   e Q     E  e E  e Q   E  E
|-------------------|---------------------|
|----15--(15)-14----|-14h15---14----12----|
|----14--(14)-14----|-14------14----12h13-|
|----16--(16)-14----|-14h16---14----12----|
|-------------------|---------------------|
|-------------------|---------------------|


      D/F#      A/E               E5/F#  A/E
  Q    Q    +E   e Q      E   e E  e Q    E  E
|----------------------|------------------------|
|-----15---(15)-14-----|-14h=15---17-----14h15--|
|-----14---(14)-14-----|-14-------16-----14-----|
|-----16---(16)-14-----|-14h=16---16-----14h16--|
|----------------------|------------------------|
|-0------0---0-----0-0-|-(0)----0----0-0--------|
  Q.     E   Q     E E   +Q     Q    E E  Q


      D/F#      A/E               E5/F#  G#m/D
  Q    Q    +E   e Q      E   e E  e Q    Q
|----------------------|-----------------------|
|-----15---(15)-14-----|-14h=15---17-----12\---|
|-----14---(14)-14-----|-14-------16-----13\---|
|-----16---(16)-14-----|-14h=16---16-----12\---|
|----------------------|-----------------------|
|-0------0---0-----0-0-|-(0)----0----0-0-----0-|
  Q.     E   Q     E E   +Q     Q    E Q     E


      D/E       A/E               G/D
  Q    Q    +E   e Q      E   e E  E  Q    Q
|----------------------|------------------------|
|-----15---(15)-14-----|-14h=15---12------------|
|-----14---(14)-14-----|-14-------12h13---------|
|-----16---(16)-14-----|-14h=16---12------------|
|----------------------|------------------------|
|-0-0--0-0---0-----0-0-|-(0)----0----(0)-0-0-0--|
  E E  E E   Q     E E   +Q     Q    +E  E E E


  D/F# N.C.
       PM------------------|
   E E E E E E E E   E E E E  E  E  E  E
|------------------|---------------------|
|-15---------------|---------------------|
|-14---------------|---------12-14-12-14-|
|-16---------------|---------12-14-12-14-|
|------------------|---------------------|
|------0-0-0-0-0-0-|-0-0-0-0-------------|


  PM--------------------|         PM|
  E E E E E E E E   E E E  E  E E E E
|-----------------|--------------------|
|-----------------|--------------------|
|-----------------|-------14-14--------|
|-----------------|-------11-12--------|
|-----------------|--------------------|
|-0-0-0-0-0-0-0-0-|-0-0-0---------0-0--|


                            E/A/CE/A/C# N.C.
  PM----------------------|             PM------------------------------|
  E E E E E E E E   E E E E E  E E  E   E E E E E E E E   E E E E E E E E
|-----------------|-------------------|-----------------|------------------|
|-------------9---|---------9-10-9-10-|-----------------|------------------|
|---------9---9---|---------9--9-9--9-|-----------------|------------------|
|-----------------|---------9-11-9-11-|-----------------|------------------|
|-----------------|-------------------|-----------------|------------------|
|-0-0-0-0---0---0-|-0-0-0-0-----------|-0-0-0-0-0-0-0-0-|-0-0-0-0-0-0-0-0--|


     Em11
  PM                     PM|      PM|        PM|
  Q  H.        +Q.    E  e E q    Q   H.           +Q.     e  Q    Q
|------------|------------------|-----3----------|-(3)------------------|
|----8-------|-(8)--------------|-----3----------|-(3)-------(0)--------|
|----7-------|-(7)--------------|-----2----------|-(2)-----2--0---------|
|----7-------|-(7)---(7)-----5--|-----2----------|-(2)-----2--2---------|
|----7-------|-(7)----7------5--|----------------|----------------------|
|-0----------|-----------0-0----|-0-0--------0-0-|--0--0-0----0--0-0----|
                                  E E Q   Q  E E    E  E E E  E  E E E


                                                      N.C.
  PM
  Q  H.        +W           +W           +W           E E E E E E E E
|----3-------|-(3)--------|-(3)--------|-(3)--------|-------------------|
|----3-------|-(3)--------|-(3)--------|-(3)--------|-------------------|
|----2-------|-(2)--------|-(2)--------|-(2)--------|-------------------|
|----2-------|-(2)--------|-(2)--------|-(2)--------|---2-2---2-2---2---|
|------------|------------|------------|------------|-------------------|
|-0--0-------|-(0)--------|-(0)--------|-(0)--------|-0-----0-----0-----|


  E E E E E E E E       E E E E E E E E
|---------------------|-----------------|
|---------------------|-----------------|
|---------------------|-----------------|
|-2---2-2-0---0-------|---2-2---2-2---2-|
|---------------------|-----------------|
|---0-------3---3b3.5-|-0-----0-----0---|


  E E E E E E E E       E E E E E E E E
|---------------------|------------------|
|---------------------|------------------|
|---------------------|------------------|
|-2---2-2-0-----------|---2-2---2-2---2--|
|-----------2-0-------|------------------|
|---0-----------3b3.5-|-0-----0-----0----|


  E E E E E E E +E    E E E E E E E E   E E E E E E E E   Q  E E Q  E E
|-------------------|-----------------|-----------------|----------------|
|-------------------|-----------------|-----------------|----------------|
|-------------------|-----------------|-------------0---|-0--2---0--2----|
|-2---2-2-0---0-(0)-|---2-2---2-2---2-|-2---2---0---0---|-0--2---0--2----|
|-----------2-------|-----------------|-----------------|----------------|
|---0---------------|-0-----0-----0---|---3---3---3---3-|------3------3--|


                                                           Em11
  Q  H    S S E   Q  S S E Q  S S E   Q  H    +E  S S   Q  E E +Q   Q
|---------------|-------------------|-----------------|----3-------------|
|---------------|-------------------|-----------------|----3-------------|
|-0-------------|-------------------|-----------------|----2-2-(2)--2----|
|-0-------2p0---|-0--2p0---0--2p0---|-x---------------|----2-2-(2)--2----|
|---------------|-------------------|-x-----------x-x-|-2----------------|
|----0--------3-|--------3--------3-|----0----(0)-x-x-|-0----------------|


  N.C.                                    G5 Em11
   E   Q.   Q  E E   E E E E E E     Q    Q  H.        +W           W
|------------------|--------------------|------------|------------|---------:
|------------------|--------------------|-3--3-------|-(3)--------|---------:
|------------------|--------------------|-0--2-------|-(2)--------|---------:
|--------------0---|-0-2-0---0----------|-0--2-------|-(2)--------|-2tr0----:
|----------------2-|--------------------|------------|------------|---------:
|-(3)\-0----0------|-------3---3b3.5-0--|-3--0-------|-(0)--------|---------:


               3rd Verse
                N.C.
  +W            +W           +W           +Q.   E H      W          W
|------------||------------|------------|--------------:----------:------:
|------------||------------|------------|--------------:----------:------:
|------------||------------|------------|--------------:----------:------:
|-(2)--------||-(2)--------|-(2)--------|-(2)----------:----------:------:
|------------||------------|------------|--------------:----------:------:
|------------||------------|------------|--------------:----------:------:


         Em11                                               E5
 2/4    4/4
  W      W          Q  Q  H      +W           +H.      Q     q   Q  H
|------:-3--------:-3--3--3----|-(3)--------|-(3)------x--:--------------*|
|------:-3--------:-3--3--3----|-(3)--------|-(3)------x--:--------------*|
|------:-2--------:-2--2--2----|-(2)--------|-(2)------x--:--------------*|
|------:-2--------:-2--2--2----|-(2)--------|-(2)------x--:-(2)----------*|
|------:----------:------------|------------|-------------:--2-----------*|
|------:-0--------:-0--0--0----|-(0)--------|-(0)---------:--0-----------*|


Duration Legend
---------------
W - whole; H - half; Q - quarter; E - 8th; S - 16th; T - 32nd; X - 64th; a - acciaccatura
+ - note tied to previous; . - note dotted; .. - note double dotted
Uncapitalized letters represent notes that are staccato (1/2 duration)
Irregular groupings are notated above the duration line
Duration letters will always appear directly above the note/fret number it represents the
duration for.  Duration letters with no fret number below them represent rests.  Multi-
bar rests are notated in the form Wxn, where n is the number of bars to rest for.  Low
melody durations appear below the staff

Tablature Legend
----------------
 h   - hammer-on
 p   - pull-off
 b   - bend
 pb  - pre-bend
 r   - bend release (if no number after the r, then release immediately)
 /\  - slide into or out of (from/to "nowhere")
 s   - legato slide
 S   - shift slide
  - natural harmonic
[n]  - artificial harmonic
n(n) - tapped harmonic
 ~   - vibrato
 tr  - trill
 T   - tap
 TP  - trem. picking
 PM  - palm muting
\n/  - tremolo bar dip; n = amount to dip
 \n  - tremolo bar down
 n/  - tremolo bar up
/n\  - tremolo bar inverted dip
 =   - hold bend; also acts as connecting device for hammers/pulls
 <>  - volume swell (louder/softer)
 x   - on rhythm slash represents muted slash
 o   - on rhythm slash represents single note slash

Misc Legend
-----------
 |  - bar
||  - double bar
||o - repeat start
o|| - repeat end
*|  - double bar (ending)
 :  - bar (freetime)
 $  - Segno
 &  - Coda
Tempo markers -  = BPM(8/16=s8/s16), where s8 = swing 8ths, s16 = swing 16ths


            
            
Suggest correction
Creating personal tab
Creating personal tab
You can edit any tab online and save it as your Personal.

You can edit, replace or remove any tab part or add personal notes – all changes will be seen only by you.

Personal tabs can be accessed anytime from any device, even offline.
Learn more »
Give kudos to tab author, rate the tab!
1 2 3 4 5
comments
print report bad tab
guest
You may want to rate the tab now too:
select rating
Wanna post a correction for this tab? Suggest correction