Oops, an error
Loading. Please wait.

Happy Again tab

301 views 1 this week
no commentswrite comment
1 2 3 4 5
3 more votes to show rating
add to favorites
×
Save as Personal and add changes to this tab that will be seen only by you. Learn more ›
×
You can save this tab as Personal to edit and correct it or add notes. All changes will be seen only by you. Learn more »
launch autoscroll
font size
0
reset
how to read this tab
guitar tuner
edit
Autoscroll
slow
fast
+/-
esc
set tempo
stop
The Wild Feathers - Happy Again


[Intro]

(Chords underneath lead = A, Bm, C#m, Bm, A)

e|---9-----------|
B|--10-----------| 12x
G|---------------|
D|---------------| 
A|---------------|
E|---------------|

e|-----7--5--5h7\2---9--7-5h7\2---------------------|
B|-----7--5--5h7\2---10-7-5h7\2--3/5-3-2-2----------|
G|-------------------------------4/6-4-2-2----------|
D|--------------------------------------------------| 
A|--------------------------------------------------|
E|--------------------------------------------------|


[Verse]

A
Where your eyes?
Bm
Why so low?
     C#m                Bm           A
Well I need a ride, I’m trying to score


[Verse]

A
Give me the keys
Bm
You know I wanna drive
      C#m                        Bm                     A
Well I know a place where we can both go and get real high


[Chorus]

                 Bm           A
 I just wanna be happy again
                  Bm          A
 Somebody make me happy again

 
[Verse]

                 A
‘Cause I’ve been coming down
          Bm
 You know I get so mean
           C#m                Bm           A
 Like I was dipped and soaked inside kerosene
            A
 And now my skin it burns
          Bm
 You know my head it screams
  C#m          Bm                A
 Someone won’t you take care of me


[Chorus]
                 Bm           A
 I just wanna be happy again
                  Bm          A
 Somebody make me happy again


[Bridge]

C#m                 D            A
‘Cause I don’t even know what my name is anymore (when we were clean, no scars)
C#m           D                               A
 I’m sick and tired of trying to play all the time for you, little girl (sadness sings and knows who you are)
C#m         D            A
 It’s never easy in this cold cruel world
                 Bm
 Oh it only gets harder
                  C#m
 If you can’t get happy
             C#m   C    Bm
 You know it never gets easy anymore
             C#m
 It only gets hard

 
[Solo]

Solo chords: A, Bm, C#m, Bm, A (x2)

Solo Lead:
e|---9-----------|
B|--10-----------| 12x
G|---------------|
D|---------------| 
A|---------------|
E|---------------|

e|-----7--5--5h7-------12------------12-------------------------------------------|
B|-----7--5--5h7--12b14--14r12--12b14---12b14r12p10h12--10-12-12b14--14r12-10-10~~|
G|--------------------------------------------------------------------------------|
D|--------------------------------------------------------------------------------| 
A|--------------------------------------------------------------------------------|
E|--------------------------------------------------------------------------------|

e|----5---7---9----10----12---14----------------|
B|----------------------------------------------| 
G|--/6--/7--/9--/11---/12--/14------------------|
D|----------------------------------------------| 
A|----------------------------------------------|
E|----------------------------------------------|


e|---9-----------|
B|--10-----------| 12x
G|---------------|
D|---------------| 
A|---------------|
E|---------------|

e|-----7--5--5h7\2---9--7-5h7\2---------------------|
B|-----7--5--5h7\2---10-7-5h7\2--3/5-3-2-2----------|
G|-------------------------------4/6-4-2-2----------|
D|--------------------------------------------------| 
A|--------------------------------------------------|
E|--------------------------------------------------|


[Chorus]

                Bm      A
 I just wanna be happy again
                  Bm                A
 Somebody make me happy like all my friends
                  Bm     A
 I just wanna be happy again (wait, wait by the water)
                  Bm                 A
 Somebody make me happy like all my friends (stay, stay while you can)
                 Bm                    A
 I just wanna be happy one more time again (pay by the dollar)
                  Bm                       A
 Somebody make me happy, I don't think you can (the pain of any man)
                  Bm      A
 I just wanna get happy  Oh can’t you understand
                   Bm                  A
 I just want to be happy I’m a broken man


[Outro]

Repeat 2x

e|---9-----------|
B|--10-----------| 12x
G|---------------|
D|---------------| 
A|---------------|
E|---------------|

e|-----7--5--5h7\2---9--7-5h7\2-----------------------|
B|-----7--5--5h7\2---10-7-5h7\2--3/5-3-2-2------------|
G|-------------------------------4/6-4-2-2--4b6r4p2---|
D|--------------------------------------------------4-| 
A|----------------------------------------------------|
E|----------------------------------------------------|

e|---------5---7---9-------|
B|-------------------------| 
G|-------/6--/7--/9--------|
D|-------------------------| 
A|-------------------------|
E|-------------------------|


Then End with this 1x:

e|---9-----------|
B|--10-----------| 12x
G|---------------|
D|---------------| 
A|---------------|
E|---------------|

e|-----7--5--5h7\2---9--7-5h7\2---------------------|
B|-----7--5--5h7\2---10-7-5h7\2--3/5-3-2-2----------|
G|-------------------------------4/6-4-2-2----------|
D|--------------------------------------------------| 
A|--------------------------------------------------|
E|--------------------------------------------------|


***********************************
| /   Slide up
| \   Slide down
| h   Hammer-on
| r   Release
| p   Pull-off
| ~   Vibrato
| b   Bend
***********************************
Suggest correction
Creating personal tab
Creating personal tab
You can edit any tab online and save it as your Personal.

You can edit, replace or remove any tab part or add personal notes – all changes will be seen only by you.

Personal tabs can be accessed anytime from any device, even offline.
Learn more »
Give kudos to tab author, rate the tab!
1 2 3 4 5
comments
print report bad tab
guest
You may want to rate the tab now too:
select rating
Wanna post a correction for this tab? Suggest correction