Oops, an error
Loading. Please wait.

Into The Sun chords

289 views 1 this week
no commentswrite comment
1 2 3 4 5
3 more votes to show rating
add to favorites
×
Save as Personal and add changes to this tab that will be seen only by you. Learn more ›
×
You can save this tab as Personal to edit and correct it or add notes. All changes will be seen only by you. Learn more »
launch autoscroll
font size
0
reset
transpose
0
reset
display chords
guitar tuner
edit
Autoscroll
slow
fast
+/-
esc
set tempo
stop
Strumming
There is no strumming pattern for this song yet. and get +5 IQ
Into the Sun- The Wild Feathers
Studio album version = Capo 1
Live Version = No Capo

[Intro]

e|---------------------------------------|
B|---------------------------------------|
G|---------------------------------------|
D|-----3-2-0--------0--------0-----------| X2
A|----------------3---3----3---3---------|
E|---3----------1--------1---------------|


[Chorus]

C        Am   F             C
Into the sun, away from the night
G          Am                F       C
Everyone’s waiting for their time to arrive
G          Am        F          C
Only this moment, is here right now
G        Am      F             F           C
Into the sun, we ain’t going down


[Verse]

G      Am        F           C
Twenty-three and chasing the sound
G                     Am                 F          C
That's what you gotta do when you’re the new kid in town
Em      Am           F           C
I’m not reacting I’m just acting out
Dm                       G 
I want to go where they can’t find me


[Chorus]

C        Am   F             C
Into the sun, away from the night
G          Am                F       C
Everyone’s waiting for their time to arrive
G          Am        F          C
Only this moment, is here right now
G        Am      F             F           C
Into the sun, we ain’t going down


[Verse]

G      Am  F        C
Waking up, open the door
G     Am          F           C
I can see that my heart wants more
Em      Am          F          C
Got obligations you don’t understand
Dm                  G
I wanna go where I wanna be


[Solo]

C, Am, F, C
G, Am, F, C
Em, Em, Em, Em

[Solo]
(Taken from acoustic version at Paste Studios (youtube)

e|--------------------15-----15------------------15--------15-------15---------------------|
B|----15b17r15-13-15~~--15b17---17r15-13---15br17----15br17---15br17---17r15-13~~----------|
G|-----------------------------------------------------------------------------------------|
D|-----------------------------------------------------------------------------------------| 
A|-----------------------------------------------------------------------------------------|
E|-----------------------------------------------------------------------------------------|

e|-------------------------------------------------------------------|
B|-----13--12~--12-15-12~--12-15-12h15p12--12-15-12~-----------------|
G|--14---------------------------------------------------------------|
D|-------------------------------------------------------------------| 
A|-------------------------------------------------------------------|
E|-------------------------------------------------------------------|


[Bridge]

(Intro Lick)
I can see that coasting is easy
(Intro lick)
When nothing’s weighing down on me
E             F      
I can finally fly now
G        C
 I’m free


[Chorus]

C        Am   F             C
Into the sun, away from the night
G          Am                F       C
Everyone’s waiting for their time to arrive
G          Am        F          C
Only this moment, is here right now
G        Am      F             F           
Into the sun, we ain’t going down
 
C        Am   F             C
Into the sun, away from the night
G          Am                F       C
Everyone’s waiting for their time to arrive
G          Am        F          C
Only this moment, is here right now
G        Am      F             F           C
Into the sun, we ain’t going down 


****************************************************
| ~    vibrato
| b    bend
| p    pull-off
| h    hammer-on
| br   bend-release
| r    release
****************************************************
Suggest correction
Creating personal tab
Creating personal tab
You can edit any tab online and save it as your Personal.

You can edit, replace or remove any tab part or add personal notes – all changes will be seen only by you.

Personal tabs can be accessed anytime from any device, even offline.
Learn more »
Give kudos to tab author, rate the tab!
1 2 3 4 5
comments
print report bad tab
guest
You may want to rate the tab now too:
select rating
Wanna post a correction for this tab? Suggest correction