Oops, an error
Loading. Please wait.

I Wanna Go Where The People Go Bass Tab

866 views 1 this week
no commentswrite comment
1 2 3 4 5
please rate
add to favorites
launch autoscroll
font size
0
reset
guitar tuner
Tab Pro tools
  • play this tab
  • loop segment
  • change instrument
  • show fretboard
  • metronome
×
Best way to learn
"I Wanna Go Where The People Go"
Autoscroll
slow
fast
+/-
esc
set tempo
stop
Difficulty
novice
NTRO					   

G-|------------------|
D-|------------------|
A-|------------------|
E-|-0000000000000000-|





RIFF 1         				

G-|----------------------|--------------------|-------------------|-------------------|
D-|----------------------|--------------------|-------------------|-------------------|
A-|-----5----------------|---5-----7----------|-2-22-22-----------|-5---7-------------|
E-|-5-----0-5------------|-5----------------7\|-------------22-22-|---------5---------|





PRE CHORUS
    C	F		   D   G		  E			

G-|----------------------|----------------------|----------------------|
D-|----------------------|----------------------|----------------------|
A-|-3-3-----3--3--3--3---|-5-5-----5--5--5--5---|-7-7-77--7--7--7--7---|
E-|-----11---------------|-----33---------------|----------------------|

     B                     D			   A

G-|----------------------|----------------------|----------------------|
D-|----------------------|----------------------|----------------------|
A-|----------------------|-5-5-55--5--5--5--5---|----------------------|
E-|-7-7-77--7--7--7--7---|----------------------|-5-5-55--5--5--5--5---|





CHORUS

I W G W T P G yeah... (I W G W T P G yeah)
A                      D               

G-|----------------------|----------------------|
D-|----------------------|----------------------|
A-|----------------------|-5-5-55--5--5--5--5---|
E-|-5-5-55--5--5--5--5---|----------------------|




(This bit isn't perfect... but if you listen the rhythm will come)

Take me there, anywhere, just as long as there's an atmosphere we'll be round
     A  D       A D           A  D    A  D       A  D A  D              A

G-|----------------------------------------------------------------------------|
D-|----------------------------------------------------------------------------|
A-|-----55555555--55555555-------55555---55555555---55---555555555555555-------|
E-|-5-5---------55------------55------55--------5555-55----------------5555555|





POST CHORUS

 
G-|----------------------|----------------------|   
D-|----------------------|----------------------|   
A-|----------------------|5-5-5-5-5-5-5-5-5-5-5-|   
E-|-0----5-7-------------|----------------------|
comments
We did not receive enough feedback on this tab! Please rate:
print report bad tab
1 2 3 4 5
I want to post or [tab]
guest
You may want to rate the tab now too:
select rating
Please do not post tabs as comments. Select "correction" instead!