Oops, an error
Loading. Please wait.

Looking For The One tab

318 views 1 this week
no commentswrite comment
1 2 3 4 5
3 more votes to show rating
add to favorites
×
Save as Personal and add changes to this tab that will be seen only by you. Learn more ›
×
You can save this tab as Personal to edit and correct it or add notes. All changes will be seen only by you. Learn more »
launch autoscroll
font size
0
reset
how to read this tab
guitar tuner
edit
Autoscroll
slow
fast
+/-
esc
set tempo
stop
Author
Band: The Wildhearts    
Song: Looking For The One
Album: Coupled With
Tuning: Eb


eb|------------------------------------------|
Bb|------------------------------------------|
Gb|------------------------------------------|
Db|--3-3-3---------3-3-3---------3-3---------|  x2
Ab|--1-1-1--2-2-2--1-1-1--2-2-2--1-1--2-2----|
Eb|---------0-0-0---------0-0-0-------0-0----|


eb|------------------------------------------|
Bb|------------------------------------------|
Gb|------------------------------------------|
Db|--3-3-------3-3-------3-------3-----3-----|
Ab|--1-1--2-2--1-1--2-2--1--2----1--2--1-----|
Eb|-------0-0-------0-0-----0-------0--------|


eb|---------------------------------------------|
Bb|---------------------------------------------|
Gb|---------------------------------------------|  
Db|--------------------5----------3-----3-4-----| x4
Ab|--------------------3----------1-----1-2-----|
Eb|--0-0--3-0-2-3-2--0----0-0-0-0---0-0---------|


eb|----------------------------------------|
Bb|----------------------------------------|
Gb|----------------------------------------|
Db|-----5-----------3-5------5--5-3--------| x4
Ab|--2--3--2----2-2-1-3-2----3--3-1-5------|
Eb|--0-----0----0-0-----0-----------3------|


eb|--------------------------------------------------------------------------|
Bb|--------------------------------------------------------------------------|
Gb|--------------------------------------------------------------------------|
Db|----------------------4-4-4-4-4-4-4-4--6-6-6-6-6-6-6-6--2-2-2-2-2-2-2-2---|
Ab|--2--2-2-2-2-2-2-2-2--2-2-2-2-2-2-2-2--4-4-4-4-4-4-4-4--0-0-0-0-0-0-0-0---|
Eb|--0--0-0-0-0-0-0-0-0------------------------------------------------------|


eb|-------------------------------------------------------------------------|
Bb|-------------------------------------------------------------------------|
Gb|-------------------------------------------------------------------------|
Db|---------------------4-4-4-4-4-4-4-4--6-6-6-6-6-6-6-6--2-2-2-2-2-2-2-2---|
Ab|----2-2-2-2-2-2-2-2--2-2-2-2-2-2-2-2--4-4-4-4-4-4-4-4--0-0-0-0-0-0-0-0---|
Eb|----0-0-0-0-0-0-0-0------------------------------------------------------|

eb|------2------------4------------5------------0----2-2-2--------------|
Bb|------2------------4------------5------------0----3-3-3--------------|
Gb|------2------------4------------6------------1----2-2-2----4-4-4-----|
Db|--4---4--4-4----6--6--6-6----7--7--7-7----2--2----0-0-0----4-4-4-----|
Ab|--4---4--4-4----6--6--6-6----7--7--7-7----2--2-------------2-2-2-----|
Eb|--2---2--2-2----4--4--4-4----5--5--5-5----0--0-----------------------|

eb|----------------------------------------|
Bb|------------------3-3-------------------|
Gb|---------4---4-4--2-2--2----2-----------| x3
Db|--2-2----4---4-4--0-0--2----2-----------|
Ab|--2-2----2---2-2-------0----0-----------|
Eb|--0-0--0-----------------------3b--0----|

eb|----------------------------------|
Bb|----------------------3-3---------|
Gb|-------2--------------2-2--2------|
Db|-------2---------4----0-0--2------|
Ab|--4-4--0----2-2--4---------0------|
Eb|--2-2-------0-0--2----------------|


eb|----------------------------------------|
Bb|----------------------------------------|
Gb|----------------------------------------|
Db|-----5-----------3-5------5--5-3--------| x2
Ab|--2--3--2----2-2-1-3-2----3--3-1-5------|
Eb|--0-----0----0-0-----0-----------3------|


eb|--------------------------------------------------------------------------|
Bb|--------------------------------------------------------------------------|
Gb|--------------------------------------------------------------------------|
Db|----------------------4-4-4-4-4-4-4-4--6-6-6-6-6-6-6-6--2-2-2-2-2-2-2-2---|
Ab|--2--2-2-2-2-2-2-2-2--2-2-2-2-2-2-2-2--4-4-4-4-4-4-4-4--0-0-0-0-0-0-0-0---|
Eb|--0--0-0-0-0-0-0-0-0------------------------------------------------------|


eb|-------------------------------------------------------------------------|
Bb|-------------------------------------------------------------------------|
Gb|-------------------------------------------------------------------------|
Db|---------------------4-4-4-4-4-4-4-4--6-6-6-6-6-6-6-6--2-2-2-2-2-2-2-2---|
Ab|----2-2-2-2-2-2-2-2--2-2-2-2-2-2-2-2--4-4-4-4-4-4-4-4--0-0-0-0-0-0-0-0---|
Eb|----0-0-0-0-0-0-0-0------------------------------------------------------|


eb|------2------------4------------5------------0----2-2-2--------------|
Bb|------2------------4------------5------------0----3-3-3--------------|
Gb|------2------------4------------6------------1----2-2-2----4-4-4-----|
Db|--4---4--4-4----6--6--6-6----7--7--7-7----2--2----0-0-0----4-4-4-----|
Ab|--4---4--4-4----6--6--6-6----7--7--7-7----2--2-------------2-2-2-----|
Eb|--2---2--2-2----4--4--4-4----5--5--5-5----0--0-----------------------|

eb|----------------------------------------|
Bb|------------------3-3-------------------|
Gb|---------4---4-4--2-2--2----2-----------| x3
Db|--2-2----4---4-4--0-0--2----2-----------|
Ab|--2-2----2---2-2-------0----0-----------|
Eb|--0-0--0-----------------------3b--0----|

eb|----------------------------------|
Bb|----------------------3-3---------|
Gb|-------2--------------2-2--2------|
Db|-------2---------4----0-0--2------|
Ab|--4-4--0----2-2--4---------0------|
Eb|--2-2-------0-0--2----------------|


eb|-----------------------------------------------------------------------|
Bb|-----------------------------------------------------------------------|
Gb|--4--2--2----2--4--4--2--2---2--4--4--2--2----2--4--4--2--4--2--6------|
Db|--4--2--2----2--4--4--2--2---2--4--4--2--2----2--4--4--2--4--2--6------|
Ab|-----------------------------------------------------------------------|
Eb|-----------------------------------------------------------------------|
  |                                                                       |   
eb|-----------------------------------------------------------------------|    
Bb|-----------------------------------------------------------------------|
Gb|-----------------------------------------------------------------------|   
Db|--2-2-2-2-2-2-2-2-2-2-2-2-2-2-2-2-2-2-2-2-2-2-2-2-2-2-2-2-2-2-2-2------|
Ab|--0-0-0-0-0-0-0-0-0-0-0-0-0-0-0-0-0-0-0-0-0-0-0-0-0-0-0-0-0-0-0-0------|      
Eb|-----------------------------------------------------------------------|        
                                                                               
                                                                                
eb|-----------------------------------------------------------------------|     
Bb|-----------------------------------------------------------------------|     
Gb|--6--4--4----4--6--6--4--4---4--6--6--4--4----4--6--6--4--4--4--6------|    
Db|--6--4--4----4--6--6--4--4---4--6--6--4--4----4--6--6--4--4--4--6------|   
Ab|-----------------------------------------------------------------------|  
Eb|-----------------------------------------------------------------------|
  |                                                                       |
eb|-----------------------------------------------------------------------|
Bb|-----------------------------------------------------------------------|
Gb|-----------------------------------------------------------------------|
Db|--4-4-4-4-4-4-4-4-4-4-4-4-4-4-4-4-4-4-4-4-4-4-4-4-4-4-4-4-4-4-4-4------|
Ab|--2-2-2-2-2-2-2-2-2-2-2-2-2-2-2-2-2-2-2-2-2-2-2-2-2-2-2-2-2-2-2-2------|
Eb|-----------------------------------------------------------------------|


eb|-----------------------------------------------------------------------|
Bb|-----------------------------------------------------------------------|
Gb|--4--2--2----2--4--4--2--2---2--4--4--2--2----2--4--4--2--4--2--6------|
Db|--4--2--2----2--4--4--2--2---2--4--4--2--2----2--4--4--2--4--2--6------|
Ab|-----------------------------------------------------------------------|
Eb|-----------------------------------------------------------------------|
  |                                                                       |   
eb|-----------------------------------------------------------------------|    
Bb|-----------------------------------------------------------------------|
Gb|-----------------------------------------------------------------------|   
Db|--2-2-2-2-2-2-2-2-2-2-2-2-2-2-2-2-2-2-2-2-2-2-2-2-2-2-2-2-2-2-2-2------|
Ab|--0-0-0-0-0-0-0-0-0-0-0-0-0-0-0-0-0-0-0-0-0-0-0-0-0-0-0-0-0-0-0-0------|      
Eb|-----------------------------------------------------------------------|        
                                                                               
                                                                                
eb|-----------------------------------------------------------------------|     
Bb|-----------------------------------------------------------------------|     
Gb|--6--4--4----4--6--6--4--4---4--6--6--4--4----4--6--6--4--4--4--6------|    
Db|--6--4--4----4--6--6--4--4---4--6--6--4--4----4--6--6--4--4--4--6------|   
Ab|-----------------------------------------------------------------------|  
Eb|-----------------------------------------------------------------------|
  |                                                                       |
eb|-----------------------------------------------------------------------|
Bb|-----------------------------------------------------------------------|
Gb|-----------------------------------------------------------------------|
Db|--4-4-4-4-4-4-4-4-4-4-4-4-4-4-4-4-4-4-4-4-4-4-4-4-4-4-4-4-4-4-4-4------|
Ab|--2-2-2-2-2-2-2-2-2-2-2-2-2-2-2-2-2-2-2-2-2-2-2-2-2-2-2-2-2-2-2-2------|
Eb|-----------------------------------------------------------------------|


eb|------------------------------------------|
Bb|------------------------------------------|
Gb|------------------------------------------|
Db|--3-3-3---------3-3-3---------3-3---------|  x2
Ab|--1-1-1--2-2-2--1-1-1--2-2-2--1-1--2-2----|
Eb|---------0-0-0---------0-0-0-------0-0----|


eb|------------------------------------------|
Bb|------------------------------------------|
Gb|------------------------------------------|
Db|--3-3-------3-3-------3-------3-----3-----|
Ab|--1-1--2-2--1-1--2-2--1--2----1--2--1-----|
Eb|-------0-0-------0-0-----0-------0--------|


eb|----------------------------------------|
Bb|------------------3-3-------------------|
Gb|---------4---4-4--2-2--2----2-----------| x3
Db|--2-2----4---4-4--0-0--2----2-----------|
Ab|--2-2----2---2-2-------0----0-----------|
Eb|--0-0--0-----------------------3b--0----|

eb|---------------------------------------------------------|
Bb|----------------------3-3--------------------------------|
Gb|-------2--------------2-2--2-----------------------------|
Db|-------2---------4----0-0--2--2-2-2-2-2-2-2-2-2-2-2-2----|
Ab|--4-4--0----2-2--4---------0--0-0-0-0-0-0-0-0-0-0-0-0----|
Eb|--2-2-------0-0--2---------------------------------------|


eb|----------------------------------------|
Bb|------------------3-3-------------------|
Gb|---------4---4-4--2-2--2----2-----------| x3
Db|--2-2----4---4-4--0-0--2----2-----------|
Ab|--2-2----2---2-2-------0----0-----------|
Eb|--0-0--0-----------------------3b--0----|

eb|----------------------------------|
Bb|----------------------3-3---------|
Gb|-------2--------------2-2--2------|
Db|-------2---------4----0-0--2------|
Ab|--4-4--0----2-2--4---------0------|
Eb|--2-2-------0-0--2----------------|

eb|------0-------------|
Bb|--------0-----------|
Gb|----------2---------| repeat to fade
Db|----2---------2-----|
Ab|--0---------0-------|
Eb|--------------------|



Key:

b = bend
Suggest correction
Creating personal tab
Creating personal tab
You can edit any tab online and save it as your Personal.

You can edit, replace or remove any tab part or add personal notes – all changes will be seen only by you.

Personal tabs can be accessed anytime from any device, even offline.
Learn more »
Give kudos to tab author, rate the tab!
1 2 3 4 5
comments
print report bad tab
guest
You may want to rate the tab now too:
select rating
Wanna post a correction for this tab? Suggest correction