Oops, an error
Loading. Please wait.

The Miles Away Girl tab

version 2
version 2

Whole song

188 views 1 this week
no commentswrite comment
1 2 3 4 5
3 more votes to show rating
add to favorites
×
Save as Personal and add changes to this tab that will be seen only by you. Learn more ›
×
You can save this tab as Personal to edit and correct it or add notes. All changes will be seen only by you. Learn more »
launch autoscroll
font size
0
reset
how to read this tab
guitar tuner
edit
Autoscroll
slow
fast
+/-
esc
set tempo
stop
The Wildhearts
The Miles Away Girl
Earth Vs the Wildhearts
Tabbed by Philip Tweedie

Tuning Eb
Key 
\/ slide down/up
X\ pick slide
PM - self explanatory?
(2) ringing from previous bar

____________________________________________________________________________________________

Intro (twice guitar only then band enters)
e|-----------------|-----------------|-----------------|
B|-----------------|-----------------|-----------------|
G|-9\--------------|-7-8-9--7-8-9\---|---------7-8-----| x3
D|-9\------2---2---|-7-8-9--7-8-9\---|-2---2---7-8-7---|
A|-7\------2---2---|-5-6-7--5-6-7\---|-2---2---5-6-7---|
E|---------0---0---|-----------------|-0---0-------5---|

e|-----------------|-----------------|-----------------|---------------5-|
B|-----------------|-----------------|-----------------|---------------5-|
G|-9\--------------|-7-8-9--7-8-9\---|---------7-8-----|---------------6-|
D|-9\------2---2---|-7-8-9--7-8-9\---|-2---2---7-8-7---|-5-6-7-----------|
A|-7\------2---2---|-5-6-7--5-6-7\---|-2---2---5-6-7---|-5-6-7-----------|
E|---------0---0---|-----------------|-0---0-------5---|-3-4-5-----------|

e|-5---------------|-----------------|
B|-5---------------|-----------------|
G|-6---------------|-----------------|
D|-----------------|-----------------|
A|-----------------|-X\--------------|
E|-----------------|-X\--------------|

e|-----------------|-----------------|-----------------|
B|-----------------|-----------------|-----------------|
G|-9\--------------|-7-8-9--7-8-9\---|----------7-8----| x2
D|-9\------2---2---|-7-8-9--7-8-9\---|---2---2--7-8-7--|
A|-7\------2---2---|-5-6-7--5-6-7\---|---2---2--5-6-7--|
E|-------0-0-0-0---|-----------------|-0-0-0-0------5--|

Guitar 1
e|-----------------|-----------------|-----------------|
B|-----------------|-----------------|-----------------|
G|-9\--------------|-7-8-9--7-8-9\---|----------7-8----|
D|-9\------2---2---|-7-8-9--7-8-9\---|---2---2--7-8-7--|
A|-7\------2---2---|-5-6-7--5-6-7\---|---2---2--5-6-7--|
E|-------0-0-0-0---|-----------------|-0-0-0-0------5--|
                                                       | x2
Guitar 2 slide play sounds best or trill pick          |
e|/12------------\-|-----------/12---|--------17-------|
B|/12------------\-|-----------/12---|-----------17----|
G|-----------------|-----------------|--------------18-|
D|-----------------|-----------------|-----------------|
A|-----------------|-----------------|-----------------|
E|-----------------|-----------------|-----------------|
____________________________________________________________________________________________

Verse 1

"She's always busy caring 'cos that's all she's ever done"
PM_______________________________________________________________________
e|-----------------|-----------------|-----------------|-----------------|
B|-----------------|-----------------|-----------------|-----------------|
G|-9-9-9-9-9-9-9-9-|-9-9-9-9-9-9-9-9-|-4-4-4-4-4-4-4-4-|-4-4-4-4-4-4-4-4-|
D|-9-9-9-9-9-9-9-9-|-9-9-9-9-9-9-9-9-|-4-4-4-4-4-4-4-4-|-4-4-4-4-4-4-4-4-|
A|-7-7-7-7-7-7-7-7-|-7-7-7-7-7-7-7-7-|-2-2-2-2-2-2-2-2-|-2-2-2-2-2-2-2-2-|
E|-----------------|-----------------|-----------------|-----------------|

"She's a thousand Florence Nightingales all rolled up into one,"
PM______________________________      ______________________________
e|-----------------|-----------------|-----------------|-----------------|
B|-----------------|-----------------|-----------------|-----------------|
G|-6-6-6-6-6-6-6-6-|-6-6-6-6-6-6-6---|-----------------|-----------------|
D|-6-6-6-6-6-6-6-6-|-6-6-6-6-6-6-6---|-6-6-6-6-6-6-6-6-|-6-6-6-6-6-6-6---|
A|-4-4-4-4-4-4-4-4-|-4-4-4-4-4-4-4---|-6-6-6-6-6-6-6-6-|-6-6-6-6-6-6-6---|
E|-----------------|-----------------|-4-4-4-4-4-4-4-4-|-4-4-4-4-4-4-4---|

"And people take    advantage but she loves her fellow  friend"
PM______________________________      _________________
e|-----------------|-----------------|-----------------|-----------------|
B|-----------------|-----------------|-----------------|-----------------|
G|-----------------|-----------------|-----------------|-2---------------|
D|-7-7-7-7-7-7-7-7-|-9-9-9-9-9-9-9---|-2-2-2-2-2-2-2-2-|-2-let ring------|
A|-7-7-7-7-7-7-7-7-|-9-9-9-9-9-9-9---|-2-2-2-2-2-2-2-2-|-0---------------|
E|-5-5-5-5-5-5-5-5-|-7-7-7-7-7-7-7---|-0-0-0-0-0-0-0-0-|-----------------|

                    "With a slow, slow count from ten"
e|-----------------|-5---------------|-----------------|
B|-----------------|-5---------------|-----------------|
G|-(2)-------------|-2---------------|-----------------|
D|-(2)-------------|-----------------|-----------------|
A|-(0)-------------|-----------------|-X\--------------|
E|-----------------|-----------------|-X\--------------|
____________________________________________________________________________________________

Verse 2

"When strangers die around her she still cries herself to sleep"
e|-----------------|-----------------|-----------------|-----------------|
B|-----------------|-----------------|-----------------|-----------------|
G|-----------------|-----------------|-4---4-4-4-4-4-4-|-4-4-4-4-4-4-4-4-|
D|-2---2-2-2-2-2-2-|-2-2-2-2-2-2-2-2-|-4---4-4-4-4-4-4-|-4-4-4-4-4-4-4-4-|
A|-2---2-2-2-2-2-2-|-2-2-2-2-2-2-2-2-|-2---2-2-2-2-2-2-|-2-2-2-2-2-2-2-2-|
E|-0---0-0-0-0-0-0-|-0-0-0-0-0-0-0-0-|-----------------|-----------------|

"And she seldom gets the chance to pick the company she keeps"
e|-4---------------|-4---------------|-----------------|-----------------|
B|-5---------------|-5---------------|-----------------|-----------------|
G|-6---6-6-6-6-6-6-|-6-6-6-6-6-6-6-6-|-5---------------|-5---------------|
D|-6---6-6-6-6-6-6-|-6-6-6-6-6-6-6-6-|-6---6-6-6-6-6-6-|-6-6-6-6-6-6-6-6-|
A|-4---4-4-4-4-4-4-|-4-4-4-4-4-4-4-4-|-6---6-6-6-6-6-6-|-6-6-6-6-6-6-6-6-|
E|-----------------|-----------------|-4---4-4-4-4-4-4-|-4-4-4-4-4-4-4-4-|

"And the ring around her finger is a ring around her past"
e|-----------------|-----------------|-----------------|-----------------|
B|-----------------|-----------------|-----------------|-----------------|
G|-----------------|-----------------|-----------------|-2---------------|
D|-7-7-7-7-7-7-7-7-|-9-9-9-9-9-9-9---|-2-2-2-2-2-2-2-2-|-2-let ring------|
A|-7-7-7-7-7-7-7-7-|-9-9-9-9-9-9-9---|-2-2-2-2-2-2-2-2-|-0---------------|
E|-5-5-5-5-5-5-5-5-|-7-7-7-7-7-7-7---|-0-0-0-0-0-0-0-0-|-----------------|

                    "And a youth that couldn't last"
e|-----------------|-----------------|-----------------|
B|-----------------|-----------------|-----------------|
G|-(2)-------------|-----------------|-----------------|
D|-(2)-------------|-----------------|-----------------|
A|-(0)-------------|-----------------|-X\--------------|
E|-----------------|-----------------|-X\--------------|
____________________________________________________________________________________________

Pre chorus

"When people ask if she's OK, she doesn't even answer"
"Her mind is set on auto think for heaven knows how long"
e|-----------------|-----------------|-----------------|-----------------|
B|-----------------|-----------------|-----------------|-----------------|
G|-4---4-4-4-4-4-4-|-4-4-4-4-4-4-4-4-|-2-2-2-2-2-2-2-2-|-----------------| x2
D|-4---4-4-4-4-4-4-|-4-4-4-4-4-4-4-4-|-2-2-2-2-2-2-2-2-|-2-2-2-2-2-2-2-2-|
A|-2---2-2-2-2-2-2-|-2-2-2-2-2-2-2-2-|-0-0-0-0-0-0-0-0-|-2-2-2-2-2-2-2-2-|
E|-----------------|-----------------|-----------------|-0-0-0-0-0-0-0-0-|

"With the body of an angel and the    features of a     child "
e|-----------------|-----------------|-----------------|-----------------|-----------------|
B|-----------------|-----------------|-----------------|-----------------|-----------------|
G|-2---2-2-2-2-2-2-|-----------------|-6---6-6-6-6-6-6-|-3---------------|-(3)-------------|
D|-2---2-2-2-2-2-2-|-6---6-6-6-6-6-6-|-6---6-6-6-6-6-6-|-4---------------|-(4)-----------2-|
A|-0---0-0-0-0-0-0-|-6---6-6-6-6-6-6-|-4---4-4-4-4-4-4-|-4---------------|-(4)-----------2-|
E|-----------------|-4---4-4-4-4-4-4-|-----------------|-2---------------|-(2)-----------0-|
____________________________________________________________________________________________

Chorus 1

"She's miles and miles and miles and miles away"
Guitar 1
e|-----------------|-----------------|---0-------------|-0-0-------------|
B|-2---2-2-2-2-2-2-|-2-2-2-2-2-2-2-2-|---0-------------|-0-0-------------|
G|-2---2-2-2-2-2-2-|-2-2-2-2-2-2-2-2-|---1-------------|-1-1-------------|
D|-2---2-2-2-2-2-2-|-2-2-2-2-2-2-2-2-|-2-2---2-2-2-2-2-|-2-2---2-2-2-2-2-|
A|-0---0-0-0-0-0-0-|-0-0-0-0-0-0-0-0-|-2-2---2-2-2-2-2-|-2-2---2-2-2-2-2-|
E|-----------------|-----------------|-0-2---0-0-0-0-0-|-0-2---0-0-0-0-0-|
                                                                         |
Guitar 2                                                                 |
e|-----------------|-----------------|-----------------|-----------------|
B|-----------------|-----------------|-----------------|-----------------|
G|-----------------|-----------------|-9---9-9-9-9-9-9-|-9-9-9-9-9-9-9-9-|
D|-7---7-7-7-7-7-7-|-7-7-7-7---------|-9---9-9-9-9-9-9-|-9-9-9-9-9-9-9-9-|
A|-7---7-7-7-7-7-7-|-7-7-7-7-X\------|-7---7-7-7-7-7-7-|-7-7-7-7-7-7-7-7-|
E|-5---5-5-5-5-5-5-|-5-5-5-5-X\------|-----------------|-----------------|

"She's the miles away girl,        She's the miles away girl"
Guitar 1
e|-----------------|-----------------|-----------------|-----------------|
B|-----------------|-----------------|-----------------|-----------------|
G|-4-4-4-4-4-4-4-4-|-4-4-4-4-4-4-4-4-|-4-4-4-4-4-4-4-4-|-4-4-4-4-4-4-4-4-|
D|-4-4-4-4-4-4-4-4-|-4-4-4-4-4-4-4-4-|-4-4-4-4-4-4-4-4-|-4-4-4-4-4-4-4-4-|
A|-2-2-2-2-2-2-2-2-|-2-2-2-2-2-2-2-2-|-2-2-2-2-2-2-2-2-|-2-2-2-2-2-2-2-2-|
E|-----------------|-----------------|-----------------|-----------------|
                                                                         |
Guitar 2                                                                 |
e|-----------------|-----------------|-----------------|-----------------|
B|-----------------|-----------------|-----------------|-----------------|
G|-4-4-4-4-4-4-4-4-|-4-4-4-4-4-4-4-4-|-4-4-4---6-6-6---|-8-8-8-8-8-8-8-8-|
D|-4-4-4-4-4-4-4-4-|-4-4-4-4-4-4-4-4-|-----------------|-----------------|
A|-2-2-2-2-2-2-2-2-|-2-2-2-2-2-2-2-2-|-2-2-2---4-4-4---|-6-6-6-6-6-6-6-6-|
E|-----------------|-----------------|-----------------|-----------------|

"And she slaps miles and miles of smiles on every face"
Guitar 1
e|-----------------|-----------------|---0-------------|-0-0-------------|
B|-2---2-2-2-2-2-2-|-2-2-2-2-2-2-2-2-|---0-------------|-0-0-------------|
G|-2---2-2-2-2-2-2-|-2-2-2-2-2-2-2-2-|---1-------------|-1-1-------------|
D|-2---2-2-2-2-2-2-|-2-2-2-2-2-2-2-2-|-2-2---2-2-2-2-2-|-2-2---2-2-2-2-2-|
A|-0---0-0-0-0-0-0-|-0-0-0-0-0-0-0-0-|-2-2---2-2-2-2-2-|-2-2---2-2-2-2-2-|
E|-----------------|-----------------|-0-2---0-0-0-0-0-|-0-2---0-0-0-0-0-|
                                                                         |
Guitar 2                                                                 |
e|-----------------|-----------------|-----------------|-----------------|
B|-----------------|-----------------|-----------------|-----------------|
G|-----------------|-----------------|-9---9-9-9-9-9-9-|-9-9-9-9-9-9-9-9-|
D|-7---7-7-7-7-7-7-|-7-7-7-7---------|-9---9-9-9-9-9-9-|-9-9-9-9-9-9-9-9-|
A|-7---7-7-7-7-7-7-|-7-7-7-7-X\------|-7---7-7-7-7-7-7-|-7-7-7-7-7-7-7-7-|
E|-5---5-5-5-5-5-5-|-5-5-5-5-X\------|-----------------|-----------------|

"She's the miles away girl,     She's the miles away girl"
                                            She's the miles away girl right next to me"
Guitar 1
e|-----------------|-----------------|-----------------|-----------------|
B|-----------------|-----------------|---x2------------|---x5------------|
G|-4-4-4-4-4-4-4-4-|-4-4-4-4-4-4-4-4-|---x3------------|---x6------------|
D|-4-4-4-4-4-4-4-4-|-4-4-4-4-4-4-4-4-|-4-x4------------|-7-x7------------|
A|-2-2-2-2-2-2-2-2-|-2-2-2-2-2-2-2-2-|-4-x4------------|-7-x7------------|
E|-----------------|-----------------|-2-x2------------|-5-x5------------|
                                                                         |
Guitar 2                                                                 |
e|-----------------|-----------------|-----------------|-----------------|
B|-----------------|-----------------|-----------------|-----------------|
G|-4-4-4-4-4-4-4-4-|-4-4-4-4-4-4-4-4-|-----------------|-----------------|
D|-4-4-4-4-4-4-4-4-|-4-4-4-4-4-4-4-4-|-4-x4------------|-7-x7------------|
A|-2-2-2-2-2-2-2-2-|-2-2-2-2-2-2-2-2-|-4-x4------------|-7-x7------------|
E|-----------------|-----------------|-2-x2------------|-5-x5------------|

Guitar 1
e|-----------------|-----------------|-----------------|
B|-----------------|-----------------|-----------------|
G|-9\--------------|-7-8-9--7-8-9\---|----------7-8----|
D|-9\------2---2---|-7-8-9--7-8-9\---|---2---2--7-8-7--|
A|-7\------2---2---|-5-6-7--5-6-7\---|---2---2--5-6-7--|
E|-------0-0-0-0---|-----------------|-0-0-0-0------5--|
                                                       | x2
Guitar 2                                               |
e|/12---x-12---x-12|-x-12-12--x-12---|-x-12---x-12-12--|
B|/12---x-12---x-12|-x-12-12--x-12---|-x-12---x-12-12--|
G|-----------------|-----------------|-----------------|
D|-----------------|-----------------|-----------------|
A|-----------------|-----------------|-----------------|
E|-----------------|-----------------|-----------------|
____________________________________________________________________________________________

Verse 3

"She sends a man to slumberland with just one little kiss"
Guitar 1
e|-----------------|-----------------|-----------------|-----------------|
B|-----------------|-----------------|-----------------|-----------------|
G|-----------------|-----------------|-4---4-4-4-4-4-4-|-4-4-4-4-4-4-4-4-|
D|-2---2-2-2-2-2-2-|-2-2-2-2-2-2-2-2-|-4---4-4-4-4-4-4-|-4-4-4-4-4-4-4-4-|
A|-2---2-2-2-2-2-2-|-2-2-2-2-2-2-2-2-|-2---2-2-2-2-2-2-|-2-2-2-2-2-2-2-2-|
E|-0---0-0-0-0-0-0-|-0-0-0-0-0-0-0-0-|-----------------|-----------------|
                                                                         |
Guitar 2                                                                 |
e|-----------------|-----------------|-----------------|-----------------|
B|-----------------|-----------------|-----------------|-----------------|
G|-9---9-9-9-9-9-9-|-9-9-9-8---6-6-6-|-4---4-4-4-4-4-4-|-8-8-8-6---4-4-4-|
D|-----------------|-----------------|-----------------|-----------------|
A|-7---7-7-7-7-7-7-|-7-7-7-6---4-4-4-|-2---2-2-2-2-2-2-|-6-6-6-4---2-2-2-|
E|-----------------|-----------------|-----------------|-----------------|

"Her silence is refreshing and her    honesty is bliss"
Guitar 1
e|-4---------------|-4---------------|-----------------|-----------------|
B|-5---------------|-5---------------|-----------------|-----------------|
G|-6---6-6-6-6-6-6-|-6-6-6-6-6-6-6-6-|-5---------------|-5---------------|
D|-6---6-6-6-6-6-6-|-6-6-6-6-6-6-6-6-|-6---6-6-6-6-6-6-|-6-6-6-6-6-6-6-6-|
A|-4---4-4-4-4-4-4-|-4-4-4-4-4-4-4-4-|-6---6-6-6-6-6-6-|-6-6-6-6-6-6-6-6-|
E|-----------------|-----------------|-4---4-4-4-4-4-4-|-4-4-4-4-4-4-4-4-|
                                                                         |
Guitar 2                                                                 |
e|-----------------|-----------------|-----------------|-----------------|
B|-----------------|-----------------|-----------------|-----------------|
G|-6---6-6-6-6-6-6-|-9-9-9-8---6-6-6-|-5---5-5-5-5-5-5-|-8-8-8-6---5-5-5-|
D|-----------------|-----------------|-----------------|-----------------|
A|-4---4-4-4-4-4-4-|-7-7-7-6---4-4-4-|-3---3-3-3-3-3-3-|-6-6-6-4---3-3-3-|
E|-----------------|-----------------|-----------------|-----------------|
                                                                         
"She's probably    clairvoyant,        but she never had the call"
Guitar 1
e|-----------------|-----------------|-----------------|-----------------|
B|-----------------|-----------------|-----------------|-----------------|
G|-----------------|-----------------|-----------------|-2---------------|
D|-7-7-7-7-7-7-7-7-|-9-9-9-9-9-9-9---|-2-2-2-2-2-2-2-2-|-2-let ring------|
A|-7-7-7-7-7-7-7-7-|-9-9-9-9-9-9-9---|-2-2-2-2-2-2-2-2-|-0---------------|
E|-5-5-5-5-5-5-5-5-|-7-7-7-7-7-7-7---|-0-0-0-0-0-0-0-0-|-----------------|
                                                                         |
                                                                         |
Guitar 2                                                                 |
e|-----------------|-----------------|-----------------|-----------------|
B|-2---------------|-4---------------|-----------------|-2---------------|
G|-2---------------|-4---------------|-1---------------|-2---------------|
D|-2---------------|-4---------------|-2---------------|-2---------------|
A|-0---------------|-2---------------|-2---------------|-0---------------|
E|-----------------|-----------------|-0---------------|-----------------|


Both                    "But that's not long at all"
e|-----------------|-----------------|-----------------|
B|-----------------|-----------------|-----------------|
G|-(2)-------------|-----------------|-----------------|
D|-(2)-------------|-----------------|-----------------|
A|-(0)-------------|-----------------|-X\--------------|
E|-----------------|-----------------|-X\--------------|
____________________________________________________________________________________________

Pre chorus

"Her head's up with the stars because she knows that's where she's heading"
"The good guys think she's different, the rest just think she's weird"
e|-----------------|-----------------|-----------------|-----------------|
B|-----------------|-----------------|-----------------|-----------------|
G|-4---4-4-4-4-4-4-|-4-4-4-4-4-4-4-4-|-2-2-2-2-2-2-2-2-|-----------------| x2
D|-4---4-4-4-4-4-4-|-4-4-4-4-4-4-4-4-|-2-2-2-2-2-2-2-2-|-2-2-2-2-2-2-2-2-|
A|-2---2-2-2-2-2-2-|-2-2-2-2-2-2-2-2-|-0-0-0-0-0-0-0-0-|-2-2-2-2-2-2-2-2-|
E|-----------------|-----------------|-----------------|-0-0-0-0-0-0-0-0-|

"She doesn't eat,   she doesn't sleep, She's thinking all the while...
e|-----------------|-----------------|-----------------|-----------------|-----------------|
B|-----------------|-----------------|-----------------|-----------------|-----------------|
G|-2---2-2-2-2-2-2-|-----------------|-6---6-6-6-6-6-6-|-3---------------|-(3)-------------|
D|-2---2-2-2-2-2-2-|-6---6-6-6-6-6-6-|-6---6-6-6-6-6-6-|-4---------------|-(4)-----------2-|
A|-0---0-0-0-0-0-0-|-6---6-6-6-6-6-6-|-4---4-4-4-4-4-4-|-4---------------|-(4)-----------2-|
E|-----------------|-4---4-4-4-4-4-4-|-----------------|-2---------------|-(2)-----------0-|

____________________________________________________________________________________________

Chorus 2

"She's miles and miles and miles and miles away"
Guitar 1
e|-----------------|-----------------|---0-------------|-0-0-------------|
B|-2---2-2-2-2-2-2-|-2-2-2-2-2-2-2-2-|---0-------------|-0-0-------------|
G|-2---2-2-2-2-2-2-|-2-2-2-2-2-2-2-2-|---1-------------|-1-1-------------|
D|-2---2-2-2-2-2-2-|-2-2-2-2-2-2-2-2-|-2-2---2-2-2-2-2-|-2-2---2-2-2-2-2-|
A|-0---0-0-0-0-0-0-|-0-0-0-0-0-0-0-0-|-2-2---2-2-2-2-2-|-2-2---2-2-2-2-2-|
E|-----------------|-----------------|-0-2---0-0-0-0-0-|-0-2---0-0-0-0-0-|
                                                                         |
Guitar 2                                                                 |
e|-----------------|-----------------|-----------------|-----------------|
B|-----------------|-----------------|-----------------|-----------------|
G|-----------------|-----------------|-9---9-9-9-9-9-9-|-9-9-9-9-9-9-9-9-|
D|-7---7-7-7-7-7-7-|-7-7-7-7---------|-9---9-9-9-9-9-9-|-9-9-9-9-9-9-9-9-|
A|-7---7-7-7-7-7-7-|-7-7-7-7-X\------|-7---7-7-7-7-7-7-|-7-7-7-7-7-7-7-7-|
E|-5---5-5-5-5-5-5-|-5-5-5-5-X\------|-----------------|-----------------|

"She's the miles away girl,        She's the miles away girl"
Guitar 1
e|-----------------|-----------------|-----------------|-----------------|
B|-----------------|-----------------|-----------------|-----------------|
G|-4-4-4-4-4-4-4-4-|-4-4-4-4-4-4-4-4-|-4-4-4-4-4-4-4-4-|-4-4-4-4-4-4-4-4-|
D|-4-4-4-4-4-4-4-4-|-4-4-4-4-4-4-4-4-|-4-4-4-4-4-4-4-4-|-4-4-4-4-4-4-4-4-|
A|-2-2-2-2-2-2-2-2-|-2-2-2-2-2-2-2-2-|-2-2-2-2-2-2-2-2-|-2-2-2-2-2-2-2-2-|
E|-----------------|-----------------|-----------------|-----------------|
                                                                         |
Guitar 2                                                                 |
e|-----------------|-----------------|-----------------|-----------------|
B|-----------------|-----------------|-----------------|-----------------|
G|-4-4-4-4-4-4-4-4-|-4-4-4-4-4-4-4-4-|-4-4-4---6-6-6---|-8-8-8-8-8-8-8-8-|
D|-4-4-4-4-4-4-4-4-|-4-4-4-4-4-4-4-4-|-----------------|-----------------|
A|-2-2-2-2-2-2-2-2-|-2-2-2-2-2-2-2-2-|-2-2-2---4-4-4---|-6-6-6-6-6-6-6-6-|
E|-----------------|-----------------|-----------------|-----------------|

"And she slaps miles and miles of smiles on every face"
Guitar 1
e|-----------------|-----------------|---0-------------|-0-0-------------|
B|-2---2-2-2-2-2-2-|-2-2-2-2-2-2-2-2-|---0-------------|-0-0-------------|
G|-2---2-2-2-2-2-2-|-2-2-2-2-2-2-2-2-|---1-------------|-1-1-------------|
D|-2---2-2-2-2-2-2-|-2-2-2-2-2-2-2-2-|-2-2---2-2-2-2-2-|-2-2---2-2-2-2-2-|
A|-0---0-0-0-0-0-0-|-0-0-0-0-0-0-0-0-|-2-2---2-2-2-2-2-|-2-2---2-2-2-2-2-|
E|-----------------|-----------------|-0-2---0-0-0-0-0-|-0-2---0-0-0-0-0-|
                                                                         |
Guitar 2                                                                 |
e|-----------------|-----------------|-----------------|-----------------|
B|-----------------|-----------------|-----------------|-----------------|
G|-----------------|-----------------|-9---9-9-9-9-9-9-|-9-9-9-9-9-9-9-9-|
D|-7---7-7-7-7-7-7-|-7-7-7-7---------|-9---9-9-9-9-9-9-|-9-9-9-9-9-9-9-9-|
A|-7---7-7-7-7-7-7-|-7-7-7-7-X\------|-7---7-7-7-7-7-7-|-7-7-7-7-7-7-7-7-|
E|-5---5-5-5-5-5-5-|-5-5-5-5-X\------|-----------------|-----------------|

"She's the miles away girl,     She's the miles away girl"
                                            She's the miles away girl right next to me"
Guitar 1
e|-----------------|-----------------|-----------------|-----------------|
B|-----------------|-----------------|---x2------------|---x5------------|
G|-4-4-4-4-4-4-4-4-|-4-4-4-4-4-4-4-4-|---x3------------|---x6------------|
D|-4-4-4-4-4-4-4-4-|-4-4-4-4-4-4-4-4-|-4-x4------------|-7-x7------------|
A|-2-2-2-2-2-2-2-2-|-2-2-2-2-2-2-2-2-|-4-x4------------|-7-x7------------|
E|-----------------|-----------------|-2-x2------------|-5-x5------------|
                                                                         |
Guitar 2                                                                 |
e|-----------------|-----------------|-----------------|-----------------|
B|-----------------|-----------------|-----------------|-----------------|
G|-4-4-4-4-4-4-4-4-|-4-4-4-4-4-4-4-4-|-----------------|-----------------|
D|-4-4-4-4-4-4-4-4-|-4-4-4-4-4-4-4-4-|-4-x4------------|-7-x7------------|
A|-2-2-2-2-2-2-2-2-|-2-2-2-2-2-2-2-2-|-4-x4------------|-7-x7------------|
E|-----------------|-----------------|-2-x2------------|-5-x5------------|
____________________________________________________________________________________________

Breakdown (I think it sounds ok with 2 guitars like this...)

Guitar 1
PM____     ____     ____              ____     ____     ____
e|-----------------|-----------------|-----------------|-----------------|
B|-----------------|-----------------|-----------------|-----------------|
G|-----------------|-----------------|-----------------|-----------------|
D|-----5-6---------|-----5-6-----4-2-|-----5-6---------|-----5-6-----4-2-|
A|-------------4-5-|---------4-5-----|-------------4-5-|---------4-5-----|
E|-0-0-----0-0-----|-0-0-------------|-0-0-----0-0-----|-0-0-------------|
                                                                         |
Guitar 2                                                                 | x2
PM____     ____     ____              ____     ____     ____             |
e|-----------------|-----------------|-----------------|-----------------|
B|-----------------|-----------------|-----------------|-----------------|
G|-----------------|-----------------|-----------------|-----------------|
D|-----------------|-------------4-2-|-----------------|-------------4-2-|
A|-------------4-5-|---------4-5-----|-----------------|---------4-5-----|
E|-0-0-3-4-0-0-----|-0-0-3-4---------|-0-0-3-4-0-0-----|-0-0-3-4---------|

(not sure about backing chords in this next part)
Guitar 1                             PM___     ___      ____
e|-----------------|-----------------|-----------------|-----------------|
B|-----------------|-----------------|-----------------|-----------------|
G|-9-----9-8-----8-|-7-----7-6-----6-|-----------------|-----------------|
D|-----------------|-----------------|-----5-6---------|-----5-6-----4-2-|
A|-----------------|-----------------|-------------4-5-|---------4-5-----|
E|-----------------|-----------------|-0-0-----0-0-----|-0-0-------------|
                                                                         |
Guitar 2                             PM___     ___      ____             |
e|-----------------|-----------------|-----------------|-----------------|
B|-----------------|-----------------|-----------------|-----------------|
G|-----------------|-----------------|-----------------|-----------------|
D|-------4-3-------|-------9-7-------|-----------------|-------------4-2-|
A|-2-----2-1-----3-|-5-----7-5-------|-------------4-5-|---------4-5-----|
E|-0-------------1-|-3---------------|-0-0-3-4-0-0-----|-0-0-3-4---------|

Guitar 1                             PM___     ___      ____
e|-----------------|-----------------|-----------------|-----------------|
B|-----------------|-----------------|-----------------|-----------------|
G|-9-----9-8-----8-|-7-----7-6-----6-|-----------------|-----------------|
D|-----------------|-----------------|-----5-6---------|-----5-6-----4-2-|
A|-----------------|-----------------|-------------4-5-|---------4-5-----|
E|-----------------|-----------------|-0-0-----0-0-----|-0-0-------------|
                                                                         |
Guitar 2                             PM___     ___      ____             |
e|-----------------|-----------------|-----------------|-----------------|
B|-----------------|-----------------|-----------------|-----------------|
G|-----------------|-----------------|-----------------|-----------------|
D|-------4-3-----9-|-7---------------|-----------------|-------------4-2-|
A|-2-----2-1-----7-|-5-----5-7-------|-------------4-5-|---------4-5-----|
E|-0---------------|-------3-5-------|-0-0-3-4-0-0-----|-0-0-3-4---------|

Both (not 100% about this part either)
e|-----------------|-----------------|-----------------|-----------------|
B|-----------------|-----------------|-----------------|-----------------|
G|-----4\3---4\3---|-4/6\4--6-----4\3|-4\3---4/6\4--6--|-4\3-3-3-3/4-4-4-|
D|-----------------|-----------------|-----------------|-----------------|
A|-2---2\1---2\1---|-2/4\2--4-2---2\1|-2\1---2/4\2--4--|-2\1-1-1-1/2-2-2-|
E|-0---------------|----------0------|-----------------|-----------------|

e|-----------------|--------------------|-------------------------|-------------------------|
B|-----------------|--------------------|-------------------------|-------------------------|
G|-4/6-6-6-6/8-8-8-|-8/9-9-9-9/11-11-11-|-11/13-13-13-13-13-13-13-|-13-13-13-13-13-13-13-13-|
D|-----------------|--------------------|-------------------------|-------------------------|
A|-2/4-4-4-4/6-6-6-|-6/7-7-7-7/9--9--9--|-9-/11-11-11-11-11-11-11-|-11-11-11-11-11-11-11-11-|
E|-----------------|--------------------|-------------------------|-------------------------|

e|-------------------------|-------------------------|
B|-------------------------|-------------------------|
G|-13-13-13-13-13-13-13-13-|-13-13-13-13-13-13-13-13-|
D|-------------------------|-------------------------|
A|-11-11-11-11-11-11-11-11-|-11-11-11-11-11-11-11-11-|
E|-------------------------|-------------------------|
____________________________________________________________________________________________

Bridge

(bass only)
G|-----------------|-----------------|-----------------|
D|-----------------|-----------------|-----------------|
A|-7---7-------7-7-|-7-------7---7---|-------7-7-7-----|
E|-------9---7-----|---9---7-------9-|-----7-------9---|

"And maybe you're the angel I knew that you could be"
G|-----------------|-----------------|-----------------|
D|-----------------|-----------------|-----------------|
A|---7---7-------7-|-7-7-------7---7-|-------7-7-7-----|
E|-7-------9---7---|-----9---7-------|-9---7-------9---|

"Well that must be the reason you bring out the devil in me"
Bass
G|-----------------|-----------------|-----------------|
D|-----------------|-----------------|-----------------|
A|-9---9-------9-9-|-9-------7---7---|-------7-7-7-----|
E|-------9---7-----|---9---7-------9-|-----7-------9---|
                                                       |
Guitar 1                              PM________       |
e|-----------------|-----------------|-----------------|
B|-----------------|-----------------|----------10\9---|
G|-----------------|-----------------|--------------9\7|
D|-----------------|-----------------|-----------------|
A|-----------------|-----------------|---------7-------|
E|-----------------|-----------------|-------79--------|

"And deep under the covers, An easy place to hide"
e|-----------------|-----------------|-----------------|
B|-----------------|-----------------|-----------------|
G|-----------------|-----------------|-----------------|
D|-----------------|-----------------|-----------------|
A|-7---7-------7-7-|-7-------7---7---|-------7-7-7-----|
E|-------9---7-----|---9---7-------9-|-----7-------9---|

"And imagine the world isn't really going on outside"
e|-----------------|-----------------|-----------------|
B|-----------------|-----------------|-----------------|
G|-----------------|-----------------|-----------------|
D|-----------------|-----------------|-----------------|
A|-9---9-------9-9-|-9-------7---7---|-------7-7-7-----|
E|-------9---7-----|---9---7-------9-|-----7-------9---|

"But you never seem to have any money, 'Cos the decent people never get paid"
e|-----------------|-----------------|-0---------------|-0---------------|
B|-2---------------|-4---------------|-0---------------|-2---------------|
G|-2---------------|-4---------------|-1---------------|-2---------------|
D|-4---------------|-4---------------|-2---------------|-2---------------|
A|-4---------------|-2---------------|-2---------------|-0---------------|
E|-2---------------|-----------------|-0---------------|---------5---4---|

"But it's never really ever a problem, 'Cos you can get miles away, "
                                                        "miles away"
e|-----------------|-----------------|---------5-------|---------4-------|
B|-2---------------|-4---------------|-----------5-----|-----------4-----|
G|-2---------------|-4---------------|-6-----------6---|-4-----------4---|
D|-4---------------|-4---------------|-7---7-----------|-6---6-----------|
A|-4---------------|-2---------------|-7---------------|-6---------------|
E|-2---------------|-----------------|-5---------------|-4---------------|

"miles away..."
PM___________________________
e|-----------------|-----------------|
B|-----------------|-----------------|
G|-----------------|-----------------|
D|-4-4-4-4-4-4-4-4-|-4-4-4-4-4-4-2---|
A|-4-4-4-4-4-4-4-4-|-4-4-4-4-4-4-2---|
E|-2-2-2-2-2-2-2-2-|-2-2-2-2-2-2-0---|
____________________________________________________________________________________________

Outro Chorus

"She's miles and miles and miles and miles away"
Guitar 1
e|-----------------|-----------------|---0-------------|-0-0-------------|
B|-2---2-2-2-2-2-2-|-2-2-2-2-2-2-2-2-|---0-------------|-0-0-------------|
G|-2---2-2-2-2-2-2-|-2-2-2-2-2-2-2-2-|---1-------------|-1-1-------------|
D|-2---2-2-2-2-2-2-|-2-2-2-2-2-2-2-2-|-2-2---2-2-2-2-2-|-2-2---2-2-2-2-2-|
A|-0---0-0-0-0-0-0-|-0-0-0-0-0-0-0-0-|-2-2---2-2-2-2-2-|-2-2---2-2-2-2-2-|
E|-----------------|-----------------|-0-2---0-0-0-0-0-|-0-2---0-0-0-0-0-|
                                                                         |
Guitar 2                                                                 |
e|-----------------|-----------------|-----------------|-----------------|
B|-----------------|-----------------|-----------------|-----------------|
G|-----------------|-----------------|-9---9-9-9-9-9-9-|-9-9-9-9-9-9-9-9-|
D|-7---7-7-7-7-7-7-|-7-7-7-7---------|-9---9-9-9-9-9-9-|-9-9-9-9-9-9-9-9-|
A|-7---7-7-7-7-7-7-|-7-7-7-7-X\------|-7---7-7-7-7-7-7-|-7-7-7-7-7-7-7-7-|
E|-5---5-5-5-5-5-5-|-5-5-5-5-X\------|-----------------|-----------------|

"She's the miles away girl,        She's the miles away girl"
Guitar 1
e|-----------------|-----------------|-----------------|-----------------|
B|-----------------|-----------------|-----------------|-----------------|
G|-4-4-4-4-4-4-4-4-|-4-4-4-4-4-4-4-4-|-4-4-4-4-4-4-4-4-|-4-4-4-4-4-4-4-4-|
D|-4-4-4-4-4-4-4-4-|-4-4-4-4-4-4-4-4-|-4-4-4-4-4-4-4-4-|-4-4-4-4-4-4-4-4-|
A|-2-2-2-2-2-2-2-2-|-2-2-2-2-2-2-2-2-|-2-2-2-2-2-2-2-2-|-2-2-2-2-2-2-2-2-|
E|-----------------|-----------------|-----------------|-----------------|
                                                                         |
Guitar 2                                                                 |
e|-----------------|-----------------|-----------------|-----------------|
B|-----------------|-----------------|-----------------|-----------------|
G|-4-4-4-4-4-4-4-4-|-4-4-4-4-4-4-4-4-|-4-4-4---6-6-6---|-8-8-8-8-8-8-8-8-|
D|-4-4-4-4-4-4-4-4-|-4-4-4-4-4-4-4-4-|-----------------|-----------------|
A|-2-2-2-2-2-2-2-2-|-2-2-2-2-2-2-2-2-|-2-2-2---4-4-4---|-6-6-6-6-6-6-6-6-|
E|-----------------|-----------------|-----------------|-----------------|

"And she slaps miles and miles of smiles on every face"
Guitar 1
e|-----------------|-----------------|---0-------------|-0-0-------------|
B|-2---2-2-2-2-2-2-|-2-2-2-2-2-2-2-2-|---0-------------|-0-0-------------|
G|-2---2-2-2-2-2-2-|-2-2-2-2-2-2-2-2-|---1-------------|-1-1-------------|
D|-2---2-2-2-2-2-2-|-2-2-2-2-2-2-2-2-|-2-2---2-2-2-2-2-|-2-2---2-2-2-2-2-|
A|-0---0-0-0-0-0-0-|-0-0-0-0-0-0-0-0-|-2-2---2-2-2-2-2-|-2-2---2-2-2-2-2-|
E|-----------------|-----------------|-0-2---0-0-0-0-0-|-0-2---0-0-0-0-0-|
                                                                         |
Guitar 2                                                                 |
e|-----------------|-----------------|-----------------|-----------------|
B|-----------------|-----------------|-----------------|-----------------|
G|-----------------|-----------------|-9---9-9-9-9-9-9-|-9-9-9-9-9-9-9-9-|
D|-7---7-7-7-7-7-7-|-7-7-7-7---------|-9---9-9-9-9-9-9-|-9-9-9-9-9-9-9-9-|
A|-7---7-7-7-7-7-7-|-7-7-7-7-X\------|-7---7-7-7-7-7-7-|-7-7-7-7-7-7-7-7-|
E|-5---5-5-5-5-5-5-|-5-5-5-5-X\------|-----------------|-----------------|

"She's the miles away girl,     She's the miles away girl"
                                            She's the miles away girl"
Guitar 1
e|-----------------|-----------------|-----------------|-----------------|
B|-----------------|-----------------|---x2------------|---x5------------|
G|-4-4-4-4-4-4-4-4-|-4-4-4-4-4-4-4-4-|---x3------------|---x6------------|
D|-4-4-4-4-4-4-4-4-|-4-4-4-4-4-4-4-4-|-4-x4------------|-7-x7------------|
A|-2-2-2-2-2-2-2-2-|-2-2-2-2-2-2-2-2-|-4-x4------------|-7-x7------------|
E|-----------------|-----------------|-2-x2------------|-5-x5------------|
                                                                         |
Guitar 2                                                                 |
e|-----------------|-----------------|-----------------|-----------------|
B|-----------------|-----------------|-----------------|-----------------|
G|-4-4-4-4-4-4-4-4-|-4-4-4-4-4-4-4-4-|-----------------|-----------------|
D|-4-4-4-4-4-4-4-4-|-4-4-4-4-4-4-4-4-|-4-x4------------|-7-x7------------|
A|-2-2-2-2-2-2-2-2-|-2-2-2-2-2-2-2-2-|-4-x4------------|-7-x7------------|
E|-----------------|-----------------|-2-x2------------|-5-x5------------|

"She's the miles away girl,   Right next to me"
Both 
e|-----------------|-----------------|-----------------|
B|----2------------|----5------------|-----------------|
G|----3------------|----6------------|-9\--------------|
D|-4-x4----------2-|-7-x7----7-7-7-7-|-9\--------------|
A|-4-x4----------2-|-7-x7----7-7-7-7-|-7\--------------|
E|-2-x2----------0-|-5-x5----5-5-5-5-|-----------------|
____________________________________________________________________________________________

Adapted from The singularity youtube cover and rarhs version on here

Enjoy
Please rate and leave constructive comments/feedback
paddyonthetoadstool@hotmail.com July 2015

            
            
Suggest correction
Creating personal tab
Creating personal tab
You can edit any tab online and save it as your Personal.

You can edit, replace or remove any tab part or add personal notes – all changes will be seen only by you.

Personal tabs can be accessed anytime from any device, even offline.
Learn more »
Give kudos to tab author, rate the tab!
1 2 3 4 5
comments
print report bad tab
guest
You may want to rate the tab now too:
select rating
Wanna post a correction for this tab? Suggest correction