Oops, an error
Loading. Please wait.

The Sweetest Song Tab

1,018 views 6 this week
no commentswrite comment
1 2 3 4 5
please rate
add to favorites
launch autoscroll
font size
0
reset
how to read this tab
guitar tuner
Tab Pro tools
  • play this tab
  • loop segment
  • change instrument
  • show fretboard
  • metronome
×
Best way to learn
"The Sweetest Song"
Autoscroll
slow
fast
+/-
esc
set tempo
stop
Contributor
Band: The Wildhearts
Song: Sweetest Song
Album: The Wildhearts
Tuning: Eb

/ = slide
~ = let ring


Main/intro riff:
eb|---------------------------------------------------|
Bb|---------------------------------------------------|
Gb|---------------------------------------------------| x4
Db|----------------------------7-7-7-7-----9-9-9-9----|
Ab|-4-3-4-3--4-5-4-5-4--5-6-7--5-5-5-5-7-8-7-7-7-7-9--|
Eb|-2-1-2-3--2-3-2-3-4--3-4-5----------5-6---------7--|


Verse riff: (Come sucker fucking away the pain)
eb|----------------------------------------------------------------------------|
Bb|----------------------------------------------------------------------------|
Gb|----------------------------------------------------------------------------|  x2
Db|---------------2-3-4------------------2-3-4-------------------2-3-4---------|
Ab|-4-2--3/4--3/4-0-1-2--5-4-2--3/4--3/4-0-1-2---5-4-2--3/4--3/4-0-1-2--5-4----|
Eb|-2-0--1/2--1/2--------3-2-0--1/2--1/2---------3-2-0--1/2--1/2--------3-2----|


Chorus riff: ( I heard song/sweetest song/etc...)
eb|--------------------------------|
Bb|--------------------------------|
Gb|--6~~---------------------------|
Db|--------------------------------|
Ab|--4~~---------------------------|
Eb|--------------------------------|


bouncy riff: (na na na)
eb|----------------------------------------------------------|
Bb|----------------------------------------------------------|
Gb|----------------------------------------------------------| x2
Db|----------------------------4-4--4-4--4-4--4-4--4--4------|
Ab|--4-4--4-4--4-4--4-4--4--4--2-2--2-2--2-2--2-2--2--2------|
Eb|--2-2--2-2--2-2--2-2--2--2--------------------------------|

Main/intro riff:
eb|---------------------------------------------------|
Bb|---------------------------------------------------|
Gb|---------------------------------------------------| x2
Db|----------------------------7-7-7-7-----9-9-9-9----|
Ab|-4-3-4-3--4-5-4-5-4--5-6-7--5-5-5-5-7-8-7-7-7-7-9--|
Eb|-2-1-2-3--2-3-2-3-4--3-4-5----------5-6---------7--|


Verse riff: (Just a cunt on the hunt)
eb|----------------------------------------------------------------------------|
Bb|----------------------------------------------------------------------------|
Gb|----------------------------------------------------------------------------|  x2
Db|---------------2-3-4------------------2-3-4-------------------2-3-4---------|
Ab|-4-2--3/4--3/4-0-1-2--5-4-2--3/4--3/4-0-1-2---5-4-2--3/4--3/4-0-1-2--5-4----|
Eb|-2-0--1/2--1/2--------3-2-0--1/2--1/2---------3-2-0--1/2--1/2--------3-2----|

Verse riff w/ half time feel:
eb|------------------------------------------------------------------------------------------------|
Bb|------------------------------------------------------------------------------------------------|
Gb|------------------------------------------------------------------------------------------------|
Db|---------------------2--3--4--------------------------2--3--4-----------------------------------|
Ab|-4--2--3--4--2--3--4-0--1--2--5--4--2--3--4--2--3--4--0--1--2--5--4--2--3--4--2--3--4--5--6--7--|
Eb|-2--0--1--2--0--1--2----------3--2--0--1--2--0--1--2-----------3--2--0--1--2--0--1--2--3--4--5--|

chorus riff: ( I heard song/sweetest song/etc...)
eb|-------------------------------------------------------------|
Bb|-------------------------------------------------------------|
Gb|--6--------6---6-----------------------------4--------4---4--| x2
Db|--6--------6---6-------4--------4---4--------4--------4---4--|
Ab|--4--------4---4-------4--------4---4--------2--------2---2--|
Eb|-----------------------2--------2---2------------------------|


bouncy riffs: (na na na)
eb|----------------------------------------------------------|
Bb|----------------------------------------------------------|
Gb|----------------------------------------------------------|
Db|----------------------------4-4--4-4--4-4--4-4--4--4------|
Ab|--4-4--4-4--4-4--4-4--4--4--2-2--2-2--2-2--2-2--2--2------|
Eb|--2-2--2-2--2-2--2-2--2--2--------------------------------|


eb|---------------------------------------------------------|
Bb|---------------------------------------------------------|
Gb|---------------------------------------------------------|
Db|----------------------------4-4--4-4--4-4--4-4--4-2------|
Ab|--4-4--4-4--4-4--4-4--4--4--2-2--2-2--2-2--2-2--2-0------|
Eb|--2-2--2-2--2-2--2-2--2--2-------------------------------|


eb|---------------------------------------------------------|
Bb|---------------------------------------------------------|
Gb|---------------------------------------------------------|
Db|--7-7--7-7--7-7--7-7--7--7-------------------------------|
Ab|--5-5--5-5--5-5--5-5--5--5--5-5--5-5--5-5--5--5--5-------|
Eb|----------------------------3-3--3-3--3-3--3--3--3-------|

eb|---------------------------------------------------------|
Bb|---------------------------------------------------------|
Gb|---------------------------------------------------------|
Db|--7-7--7-7--7-7--7-7--7--7-------------------------------|
Ab|--5-5--5-5--5-5--5-5--5--5--5-5--5-5--5-5--5--5----------|
Eb|----------------------------3-3--3-3--3-3--3--3----------|


eb|---------------------------------------------------------|
Bb|---------------------------------------------------------|
Gb|---------------------------------------------------------| x2
Db|--5-5--5-5--5-5--5-5--5--5-------------------------------|
Ab|--3-3--3-3--3-3--3-3--3--3--3-3--3-3--3-3--3--3----------|
Eb|----------------------------1-1--1-1--1-1--1--1----------|

bridge riffs: (Headfucking waste of ass)
eb|--------------------------------------|
Bb|--------------------------------------|
Gb|--------------------------------------| x2
Db|--6-6-6-6-6-6-6-6-6-6-6-6-6-6-6-6-----|
Ab|--4-4-4-4-4-4-4-4-4-4-4-4-4-4-4-4-----|
Eb|--------------------------------------|


bridge riff 2: (sitting pretty in pink)
eb|------------------------------------------------------------------------------|
Bb|------------------------------------------------------------------------------|
Gb|------------------------------------------------------------------------------|
Db|--5/6-6-6-6-6-6-6-5/6-6-6-6-6-6-6-5/6-6-6-6-5/6-6-6-6-5/6-6-6-6-5/6-6-6-6-----|
Ab|--3/4-4-4-4-4-4-4-3/4-4-4-4-4-4-4-3/4-4-4-4-3/4-4-4-4-3/4-4-4-4-3/4-4-4-4-----|
Eb|------------------------------------------------------------------------------|


Verse riff: (And the boys will dance)
eb|----------------------------------------------------------------------------|
Bb|----------------------------------------------------------------------------|
Gb|----------------------------------------------------------------------------|
Db|---------------2-3-4------------------2-3-4-------------------2-3-4---------|
Ab|-4-2--3/4--3/4-0-1-2--5-4-2--3/4--3/4-0-1-2---5-4-2--3/4--3/4-0-1-2--5-4----|
Eb|-2-0--1/2--1/2--------3-2-0--1/2--1/2---------3-2-0--1/2--1/2--------3-2----|


Verse riff w/ half time feel:
eb|------------------------------------------------------------------------------------------------|
Bb|------------------------------------------------------------------------------------------------|
Gb|------------------------------------------------------------------------------------------------|
Db|---------------------2--3--4--------------------------2--3--4--------------------------2--3--4--|
Ab|-4--2--3--4--2--3--4-0--1--2--5--4--2--3--4--2--3--4--0--1--2--5--4--2--3--4--2--3--4--0--1--2--|
Eb|-2--0--1--2--0--1--2----------3--2--0--1--2--0--1--2-----------3--2--0--1--2--0--1--2-----------|


Verse riff:
eb|-----------------------------------------------------------------------------|
Bb|-----------------------------------------------------------------------------|
Gb|-----------------------------------------------------------------------------|
Db|---------------2-3-4------------------2-3-4-------------------2-3-4----------|
Ab|-4-2--3/4--3/4-0-1-2--5-4-2--3/4--3/4-0-1-2---5-4-2--3/4--3/4-0-1-2--5-4-4---|
Eb|-2-0--1/2--1/2--------3-2-0--1/2--1/2---------3-2-0--1/2--1/2--------3-2-2---|


Chorus riff: ( I heard song/sweetest song/etc...)
eb|--------------------------------|
Bb|--------------------------------|
Gb|--6~~---------------------------|
Db|--------------------------------|
Ab|--4~~---------------------------|
Eb|--------------------------------|


eb|-------------------------------------------------------------|
Bb|-------------------------------------------------------------|
Gb|--6--------6---6-----------------------------4--------4---4--| x2
Db|--6--------6---6-------4--------4---4--------4--------4---4--|
Ab|--4--------4---4-------4--------4---4--------2--------2---2--|
Eb|-----------------------2--------2---2------------------------|


bouncy riff: (na na na)
eb|----------------------------------------------------------|
Bb|----------------------------------------------------------|
Gb|----------------------------------------------------------| x4
Db|----------------------------4-4--4-4--4-4--4-4--4--4------|
Ab|--4-4--4-4--4-4--4-4--4--4--2-2--2-2--2-2--2-2--2--2------|
Eb|--2-2--2-2--2-2--2-2--2--2--------------------------------|
comments
We did not receive enough feedback on this tab! Please rate:
print report bad tab
1 2 3 4 5
I want to post or [tab]
guest
You may want to rate the tab now too:
select rating
Please do not post tabs as comments. Select "correction" instead!