Oops, an error
Loading. Please wait.

Every Other Sunday Morning chords

451 views 6 this week
no commentswrite comment
1 2 3 4 5
1 last vote to show rating
add to favorites
×
Save as Personal and add changes to this tab that will be seen only by you. Learn more ›
×
You can save this tab as Personal to edit and correct it or add notes. All changes will be seen only by you. Learn more »
launch autoscroll
font size
0
reset
transpose
0
reset
display chords
guitar tuner
edit
Autoscroll
slow
fast
+/-
esc
set tempo
stop
Strumming
There is no strumming pattern for this song yet. and get +5 IQ
[Intro]

        C                          G                                                                       X2
e|---------------------------------3-----------------------------------------------------------------------|
B|------1-1-1--1--------1----------------------------------------------------------------------------------|
G|---------------------------------------------------------------------------------------------------------| 
D|------2-2-2--0--------0----------------------------------------------------------------------------------|
A|------3-3-3--3--------3----------0h2---------------------------------------------------------------------|
E|---------------------------------3-----------------------------------------------------------------------|


[Verse]

        C                          G
e|---------------------------------3-------------------------------------------------------------------------|
B|------1-1-1--1--------1------------------------------------------------------------------------------------|
G|-----------------------------------------------------------------------------------------------------------|
D|------2-2-2--0--------0------------------------------------------------------------------------------------|
A|------3-3-3--3--------3----------0h2-----------------------------------------------------------------------|
E|---------------------------------3-------------------------------------------------------------------------|
We're losing faith in one another

        C                          G
e|---------------------------------3-------------------------------------------------------------------------|
B|------1-1-1--1--------1------------------------------------------------------------------------------------|
G|-----------------------------------------------------------------------------------------------------------|
D|------2-2-2--0--------0------------------------------------------------------------------------------------|
A|------3-3-3--3--------3----------0h2-----------------------------------------------------------------------|
E|---------------------------------3-------------------------------------------------------------------------|
I'm losing hope for better days

        C                          G            D             Em
e|---------------------------------3------------2------------------------------------------------------------|
B|------1-1-1--1--------1-----------------------3------------------------------------------------------------|
G|----------------------------------------------2------------------------------------------------------------|
D|------2-2-2--0--------0--------------------------------------2----2--2-------------------------------------|
A|------3-3-3--3--------3----------0h2-------------------------2----0--0h2-----------------------------------|
E|---------------------------------3-------------------------------------------------------------------------|

C                     G       D          Em
You wanna know how to fix it seven years a little late

C                            G
You can't measure sadness by your sorrow
C                        G
You're counting drops of heavy rain
C                         G             D               Em
Forever crawling out from under all the rubble, all the pain


[Chorus]

        C                          G
e|---------------------------------3-------------------------------------------------------------------------|
B|------1-1-1--1--------1------------------------------------------------------------------------------------|
G|-----------------------------------------------------------------------------------------------------------|
D|------2-2-2--0--------0------------------------------------------------------------------------------------|
A|------3-3-3--3--------3----------0h2-----------------------------------------------------------------------|
E|---------------------------------3-------------------------------------------------------------------------|

C                    G
I can't remember why we were fighting
C                    G
I can't remember what made you mad
C                    G                        C     G     C     G
But I'm running out that old sweet forgiveness for you, for you


[Verse 2] 

C              G
Dressing up on Sunday morning
C              G
Every other one's the same
C              G
We sing divided hallelujah
D              Em
There's gotta be a better way


[Chorus] 

C                                G
And I can't remember why we were fighting
C                              G
I can't remember what made you mad
C                                  G          C     G    C     G
But I'm running out that old sweet forgiveness for you, for you


[Outro]
C         G  D  Em     Em
Oh sweet forgiveness, sweet forgiveness

        C                          G
e|---------------------------------3-------------------------------------------------------------------------|
B|------1-1-1--1--------1------------------------------------------------------------------------------------|
G|-----------------------------------------------------------------------------------------------------------|
D|------2-2-2--0--------0------------------------------------------------------------------------------------|
A|------3-3-3--3--------3----------0h2-----------------------------------------------------------------------|
E|---------------------------------3-------------------------------------------------------------------------|

C                       G
I can't tell you how to fix it
C                       G
I can't tell you when I gave up
C                       G                          C    G
But I'm running out that old sweet forgiveness for you



************************************

| h  Hammer-on 

************************************

            
            
Suggest correction
Creating personal tab
Creating personal tab
You can edit any tab online and save it as your Personal.

You can edit, replace or remove any tab part or add personal notes – all changes will be seen only by you.

Personal tabs can be accessed anytime from any device, even offline.
Learn more »
Give kudos to tab author, rate the tab!
1 2 3 4 5
comments
print report bad tab
guest
You may want to rate the tab now too:
select rating
Wanna post a correction for this tab? Suggest correction