Oops, an error
Loading. Please wait.

Grand Canyon tab

91 views 1 this week
no commentswrite comment
1 2 3 4 5
1 last vote to show rating
add to favorites
×
Save as Personal and add changes to this tab that will be seen only by you. Learn more ›
×
You can save this tab as Personal to edit and correct it or add notes. All changes will be seen only by you. Learn more »
launch autoscroll
font size
0
reset
how to read this tab
guitar tuner
edit
Autoscroll
slow
fast
+/-
esc
set tempo
stop
Author
Difficulty
About this tab version
This tab is based off the acoustic recording of the song, but it also works on an electric. The tab can be played throughout the song with the addition of the base line (8th notes on fret 3 of E). Was this info helpful? Yes No
[Intro]
e|------------------------------------------------------------|
B|------------------------------------------------------------|
G|------------------------------------------------------------|
D|------------0------------------------------0-----0----------|
A|--2--0--2-------2--------------2---0---2------2------2------|
E|------------------------------------------------------------|

e|------------------------------------------------------------|
B|------------------------------------------------------------|
G|------------------------------------------------------------|
D|------------0------------------------------0-----0----------|
A|--2--0--2-------2--------------2---0---2------2------2------|
E|------------------------------------------------------------|

[Verse]
e|------------------------------------------------------------|
B|------------------------------------------------------------|
G|------------------------------------------------------------|
D|------------0------------------------------0-----0----------|
A|--2--0--2-------2--------------2---0---2------2------2------|
E|------------------------------------------------------------|

G
Down to your skivvies at the waterin' hole 
G
When it gets you wet, gonna save your soul 
             C
It's the damnedest thing 
                G
Oh, it's the damnedest thing 
G
You swear nothin' gonna happen, you're invincible 
G
Pedal to the metal down a dark dirt road 
             C
It's the damnedest thing 
                  G
Oh, it's the damnedest thing 

[Chorus]
e|------------------------------------------------------------|
B|------------------------------------------------------------|
G|------------------------------------------------------------|
D|------------0------------------------------0-----0----------|
A|--2--0--2-------2--------------2---0---2------2------2------|
E|------------------------------------------------------------|

Am            C
Troublemaker where you off to now 
Am             Em                           D
I can tell you this ain't working out for anyone 
Am           C
Troublemaker where you off to now 
Am             Em                           D
I can tell you this ain't working out for anyone 

[Verse]
e|------------------------------------------------------------|
B|------------------------------------------------------------|
G|------------------------------------------------------------|
D|------------0------------------------------0-----0----------|
A|--2--0--2-------2--------------2---0---2------2------2------|
E|------------------------------------------------------------|

G
My heart burns, yeah, I'm tired of the same old stuff 
G
Running like a river from God knows what 
            C
It's the damnedest thing 
                 G
Oh, it's the damnedest thing 
G
Don't die, you're just a baby, yeah you're way too young 
G
You haven't lived till you've been to the Grand Canyon 
             C
It's the damnedest thing 
                G
Oh, it's the damnedest thing 

[Chorus]
e|------------------------------------------------------------|
B|------------------------------------------------------------|
G|------------------------------------------------------------|
D|------------0------------------------------0-----0----------|
A|--2--0--2-------2--------------2---0---2------2------2------|
E|------------------------------------------------------------|

Am            C 
Troublemaker where you off to now 
Am             Em                           D
I can tell you this ain't working out for anyone 
Am           C
Troublemaker where you off to now 
Am             Em                           D
I can tell you this ain't working out for anyone 

[Bridge]
e|------------------------------------------------------------|
B|------------------------------------------------------------|
G|------------------------------------------------------------|
D|------------0------------------------------0-----0----------|
A|--2--0--2-------2--------------2---0---2------2------2------|
E|------------------------------------------------------------|

G
oh oh oh oh 
Em       Dm        Am/C
oh oh oh oh oh ooh ooh
G
oh oh oh oh 
Em       Dm        Am/C
oh oh oh oh oh ooh ooh

[Verse]
e|------------------------------------------------------------|
B|------------------------------------------------------------|
G|------------------------------------------------------------|
D|------------0------------------------------0-----0----------|
A|--2--0--2-------2--------------2---0---2------2------2------|
E|------------------------------------------------------------|

Am
You always knew just how to piss me off, 
C                               D  
Some people just don't have a rock bottom, 
  N.C.       
I guess that's you 
G
Don't die, you're just a baby, yeah you're way too young 
G
You haven't lived till you've been to the Grand Canyon 
            C
It's the damnedest thing 
               G
Oh, it's the damnedest thing 

[Chorus]
e|------------------------------------------------------------|
B|------------------------------------------------------------|
G|------------------------------------------------------------|
D|------------0------------------------------0-----0----------|
A|--2--0--2-------2--------------2---0---2------2------2------|
E|------------------------------------------------------------|

Am           C
Troublemaker where you off to now 
Am             Em                           D
I can tell you this ain't working out for anyone 
Am           C
Troublemaker where you off to now 
Am             Em                           D
I can tell you this ain't working out for anyone 

[Outro]
D        Am             Em                           D                       
Oh, oh, I can tell you this ain't working out for anyone 
D        Am             Em                           D
Oh, oh, I can tell you this ain't working out for anyone

e|------------------------------------------------------------|
B|------------------------------------------------------------|
G|------------------------------------------------------------|
D|------------0------------------------------0-----0----------|
A|--2--0--2-------2--------------2---0---2------2------2------|
E|------------------------------------------------------------|

            
            
Suggest correction
Creating personal tab
Creating personal tab
You can edit any tab online and save it as your Personal.

You can edit, replace or remove any tab part or add personal notes – all changes will be seen only by you.

Personal tabs can be accessed anytime from any device, even offline.
Learn more »
Give kudos to tab author, rate the tab!
1 2 3 4 5
comments
print report bad tab
guest
You may want to rate the tab now too:
select rating
Wanna post a correction for this tab? Suggest correction