Oops, an error
Loading. Please wait.

My Mind Is An Endless Sea tab

256 views 15 this week
no commentswrite comment
1 2 3 4 5
2 more votes to show rating
add to favorites
×
Save as Personal and add changes to this tab that will be seen only by you. Learn more ›
×
You can save this tab as Personal to edit and correct it or add notes. All changes will be seen only by you. Learn more »
launch autoscroll
font size
0
reset
how to read this tab
guitar tuner
edit
Autoscroll
slow
fast
+/-
esc
set tempo
stop
About this tab version
The tab is all relative to the capo on the fifth fret. The song also has a pretty fast tempo so it helps to listen along for the first few times. Was this info helpful? Yes No
[Intro]
e|---------------------------------------------------------------------------| 
B|------0-------0-------0-------0-------0-------0-------0-------0------------|
G|---0-------0-------0-------0-------0-------0-------0-------0---------------| (x2)
D|---------------------------------------------------------------------------|
A|---------------------------------------------------------------------------|
E|-0---0---0---0---2---2---2---2---3---3---3---3---3---3---3---3-------------|

[Verse]
e|---------------------------------------------------------------------------|
B|------0-------0-------0-------0-------0-------0-------0-------0------------|
G|---0-------0-------0-------0-------0-------0-------0-------0---------------|
D|---------------------------------------------------------------------------|
A|---------------------------------------------------------------------------|
E|-0---0---0---0---2---2---2---2---3---3---3---3---3---3---3---3-------------|

  My mind is an endless sea, maybe

e|---------------------------------------------------------------------------|
B|-------1-------1-------0-------0-------3-------3-------3-------3-----------|
G|---0-------0-------0-------0-------0-------0-------0-------0---------------|
D|---------------------------------------------------------------------------|
A|-3---3---3---3-------------------5---5---5---5---5---5---5---5-------------|
E|-----------------3---3---3---3---------------------------------------------|

  If I am good to him, he'll be good to me

e|---------------------------------------------------------------------------|
B|------0-------0-------0-------0-------0-------0-------0-------0------------|
G|---0-------0-------0-------0-------0-------0-------0-------0---------------|
D|---------------------------------------------------------------------------|
A|---------------------------------------------------------------------------|
E|-0---0---0---0---2---2---2---2---3---3---3---3---3---3---3---3-------------|

 Better days, we get to look forward to

e|---------------------------------------------------------------------------|
B|-------1-------1-------0-------0-------3-------3-------3-------3-----------|
G|---0-------0-------0-------0-------0-------0-------0-------0---------------|
D|---------------------------------------------------------------------------|
A|-3---3---3---3-------------------5---5---5---5---5---5---5---5-------------|
E|-----------------3---3---3---3---------------------------------------------|

  They say all's well when it ends well, that's why I come home to you

e|---------------------------------------------------------------------------|
B|------0-------0-------0-------0-------0-------0-------0-------0------------|
G|---0-------0-------0-------0-------0-------0-------0-------0---------------|
D|---------------------------------------------------------------------------|
A|---------------------------------------------------------------------------|
E|-0---0---0---0---2---2---2---2---3---3---3---3---3---3---3---3-------------|

Home to you, 

e|---------------------------------------------------------------------------|
B|------0-------0-------0-------0-------1-------1-------1-------1------------|
G|---0-------0-------0-------0-------0-------0-------0-------0---------------|
D|---------------------------------------------------------------------------|
A|---------------------------------3---3---3---3---3---3---3---3-------------|
E|-0---0---0---0---2---2---2---2---------------------------------------------|

Home to you....

[Chorus]
e|---------------------------------------------------------------------------|
B|-------0-------0-------0-------0-------0-------0-------0-------0-----------|
G|---0-------0-------0-------0-------0-------0-------0-------0---------------| (x2)
D|---------------------------------------------------------------------------|
A|---------------------------------------------------------------------------|
E|-3---3---3---3---3---3---2---2---0---0---0---0---0---0---0---0-------------|

Breathe it in, let it out, settle down

e|---------------------------------------------------------------------------|
B|-------1-------1-------1-------1-------1-------1-------1-------1-----------|
G|---2-------2-------2-------2-------2-------2-------2-------2---------------|
D|---------------------------------------------------------------------------|
A|-0---0---0---0---0---0---0---0---------------------------------------------|
E|---------------------------------2---2---2---2---2---2---2---2-------------|

Why you carrying all that mess around?

[Bridge]
e|---------------------------------------------------------------------------|
B|-------1-------1-------1-------1-------0-------0-------0-------0-----------|
G|---0-------0-------0-------0-------0-------0-------0-------0---------------|
D|---------------------------------------------------------------------------|
A|-3---3---3---3---3---3---3---3---------------------------------------------|
E|---------------------------------3---3---3---3---3---3---3---3-------------|

I wouldn't waste another day

e|---------------------------------------------------------------------------|
B|-------1-------1-------1-------1-------3-------3-------3-------3-----------|
G|---2-------2-------2-------2-------0-------0-------0-------0---------------|
D|---------------------------------------------------------------------------|
A|-0---0---0---0---0---0---0---0---5---5---5---5---5---5---5---5-------------|
E|---------------------------------------------------------------------------|

Running around this crazy town, running from the mess you've made

e|---------------------------------------------------------------------------|
B|-------1-------1-------1-------1-------0-------0-------0-------0-----------|
G|---0-------0-------0-------0-------0-------0-------0-------0---------------|
D|---------------------------------------------------------------------------|
A|-3---3---3---3---3---3---3---3---------------------------------------------|
E|---------------------------------3---3---3---3---3---3---3---3-------------|

I'm gonna find another way

e|---------------------------------------------------------------------------|
B|-------1-------1-------1-------1-------3-------3-------3-------3-----------|
G|---2-------2-------2-------2-------0-------0-------0-------0---------------|
D|---------------------------------------------------------------------------|
A|-0---0---0---0---0---0---0---0---5---5---5---5---5---5---5---5-------------|
E|---------------------------------------------------------------------------|

To get along, love somebody, I know it's gonna be okay.

[Chorus]
e|---------------------------------------------------------------------------|
B|-------0-------0-------0-------0-------0-------0-------0-------0-----------|
G|---0-------0-------0-------0-------0-------0-------0-------0---------------| 
D|---------------------------------------------------------------------------|
A|---------------------------------------------------------------------------|
E|-3---3---3---3---3---3---2---2---0---0---0---0---0---0---0---0-------------|

Breathe it in, let it out, settle down

e|---------------------------------------------------------------------------|
B|-------1-------1-------1-------1-------1-------1-------1-------1-----------|
G|---2-------2-------2-------2-------2-------2-------2-------2---------------|
D|---------------------------------------------------------------------------|
A|-0---0---0---0---0---0---0---0---------------------------------------------|
E|---------------------------------2---2---2---2---2---2---2---2-------------|

Why you carrying all that mess around?

e|---------------------------------------------------------------------------|
B|-------0-------0-------0-------0-------0-------0-------0-------0-----------|
G|---0-------0-------0-------0-------0-------0-------0-------0---------------| 
D|---------------------------------------------------------------------------|
A|---------------------------------------------------------------------------|
E|-3---3---3---3---3---3---2---2---0---0---0---0---0---0---0---0-------------|

Breathe it in, let it out, settle down

e|---------------------------------------------------------------------------|
B|-------1-------1-------1-------1-------1-------1-------1-------1-----------|
G|---2-------2-------2-------2-------2-------2-------2-------2---------------|
D|---------------------------------------------------------------------------|
A|-0---0---0---0---0---0---0---0---------------------------------------------|
E|---------------------------------2---2---2---2---2---2---2---2-------------|

Why you carrying all that mess around?

            
            
Suggest correction
Creating personal tab
Creating personal tab
You can edit any tab online and save it as your Personal.

You can edit, replace or remove any tab part or add personal notes – all changes will be seen only by you.

Personal tabs can be accessed anytime from any device, even offline.
Learn more »
Give kudos to tab author, rate the tab!
1 2 3 4 5
comments
print report bad tab
guest
You may want to rate the tab now too:
select rating
Wanna post a correction for this tab? Suggest correction