Oops, an error
Loading. Please wait.

Captain Love Tab

436 views 12 this week
no commentswrite comment
1 2 3 4 5
3 more votes to show rating
add to favorites
launch autoscroll
font size
0
reset
how to read this tab
guitar tuner
Autoscroll
slow
fast
+/-
esc
set tempo
stop
Help us to improve Ultimate-Guitar.com Take our survey!
×
Author
Difficulty
novice
| ~   Vibrato
| /   Slide up
| \   Slide down
| *   Let ring


[Intro]

e|---0*----------0-0-------------0*-----0*---------------0-0------------0*----------------|
B|---0*-----3-3--3-3----------3*--------0*----------3-3--3-3---------3*-------------------|
G|---4*-----0-0--2-2--2-2*--------------4*----------0-0--2-2--2-2*------------------------|
D|---2*-----0-0--0-0--2-2*--------------2*----0-2---0-0--0-0--2-2*------------------------|
A|---2*-----x-x-------0-0*--------------2*----0-2---x-x-------0-0*------------------------|
E|----------3-3-------------------------------------3-3-----------------------------------|


e|---0*---------------0-0-------------0*-----0*---------------0-0------------0*-----------|
B|---0*----------3-3--3-3----------3*--------0*----------3-3--3-3---------3*--------------|
G|---4*----------0-0--2-2--2-2*--------------4*----------0-0--2-2--2-2*-------------------|
D|---2*----0-2---0-0--0-0--2-2*--------------2*----0-2---0-0--0-0--2-2*-------------------|
A|---2*----0-2---x-x-------0-0*--------------2*----0-2---x-x-------0-0*-------------------|
E|---------------3-3-------------------------------------3-3------------------------------|


[Verse]

e|---0*----------0-0-------------0*-----0*---------------0-0------------------------------|
B|---0*-----3-3--3-3----------3*--------0*----------3-3--3-3------------------------------|
G|---4*-----0-0--2-2--2-2*--------------4*----------0-0--2-2--2-2*------------------------|
D|---2*-----0-0--0-0--2-2*--------------2*----0-2---0-0--0-0--2-2*------------------------|
A|---2*-----x-x-------0-0*--------------2*----0-2---x-x-------0-0*------------------------|
E|----------3-3-------------------------------------3-3-----------------------------------|

e|---0*---------------0-0-------------0*-----0*---------------0-0-------------------------|
B|---0*----------3-3--3-3----------3*--------0*----------3-3--3-3-------------------------|
G|---4*----------0-0--2-2--2-2*--------------4*----------0-0--2-2--2-2*-------------------|
D|---2*----0-2---0-0--0-0--2-2*--------------2*----0-2---0-0--0-0--2-2*-------------------|
A|---2*----0-2---x-x-------0-0*--------------2*----0-2---x-x-------0-0*-------------------|
E|---------------3-3-------------------------------------3-3------------------------------|


[Chorus]

e|--0-0-------------------------0-------------------0-------------------------------------|
B|--3-3-------------------------3-------------------3-------------------------------------|
G|--2-2--2-2-------2-2----------2-----2*------------2-----2*----2-2-2---------------------|
D|--0-0--2-2-------2-2-----2----0-----2*-------2----0-----2*----2-2-2-----2---------------|
A|-------0-0-------0-0-----2----------0*-------2----------0*----0-0-0-----2---------------|
E|------------3-3-------3--0-------3--------3--0-------3---------------3--0---------------|

e|--0--------------------------0-----0-0*--------------------------------------------------|
B|--3--------------------------3-----0-0*--------------------------------------------------|
G|--2-----2*----2-2-2----------2-----2-2*--------------------------------------------------|
D|--0-----2*----2-2-2-----2----0-----1-1*--------------------------------------------------|
A|--------0*----0-0-0-----2----------2-2*--------------------------------------------------|
E|-----3---------------3--0-------3--------------------------------------------------------|

[Verse]

e|---0*----------0-0-------------0*-----0*---------------0-0------------------------------|
B|---0*-----3-3--3-3----------3*--------0*----------3-3--3-3------------------------------|
G|---4*-----0-0--2-2--2-2*--------------4*----------0-0--2-2--2-2*------------------------|
D|---2*-----0-0--0-0--2-2*--------------2*----0-2---0-0--0-0--2-2*------------------------|
A|---2*-----x-x-------0-0*--------------2*----0-2---x-x-------0-0*------------------------|
E|----------3-3-------------------------------------3-3-----------------------------------|

e|---0*----------0-0-------------0*-----0*---------0-0-------------0*---------------------|
B|---0*-----3-3--3-3----------3*--------0*----3-3--3-3----------3*------------------------|
G|---4*-----0-0--2-2--2-2*--------------4*----0-0--2-2--2-2*------------------------------|
D|---2*-----0-0--0-0--2-2*--------------2*----0-0--0-0--2-2*------------------------------|
A|---2*-----x-x-------0-0*--------------2*----x-x-------0-0*------------------------------|
E|----------3-3-------------------------------3-3-----------------------------------------|

e|---0*---------------0-0-------------0*-----0*---------------0-0-------------------------|
B|---0*----------3-3--3-3----------3*--------0*----------3-3--3-3-------------------------|
G|---4*----------0-0--2-2--2-2*--------------4*----------0-0--2-2--2-2*-------------------|
D|---2*----0-2---0-0--0-0--2-2*--------------2*----0-2---0-0--0-0--2-2*-------------------|
A|---2*----0-2---x-x-------0-0*--------------2*----0-2---x-x-------0-0*-------------------|
E|---------------3-3-------------------------------------3-3------------------------------|

[Chorus]

e|--0-0-------------------------0-------------------0-------------------------------------|
B|--3-3-------------------------3-------------------3-------------------------------------|
G|--2-2--2-2-------2-2----------2-----2*------------2-----2*----2-2-2---------------------|
D|--0-0--2-2-------2-2-----2----0-----2*-------2----0-----2*----2-2-2-----2---------------|
A|-------0-0-------0-0-----2----------0*-------2----------0*----0-0-0-----2---------------|
E|------------3-3-------3--0-------3--------3--0-------3---------------3--0---------------|

e|--0--------------------------0-----0-0*--------------------------------------------------|
B|--3--------------------------3-----0-0*--------------------------------------------------|
G|--2-----2*----2-2-2----------2-----2-2*--------------------------------------------------|
D|--0-----2*----2-2-2-----2----0-----1-1*--------------------------------------------------|
A|--------0*----0-0-0-----2----------2-2*--------------------------------------------------|
E|-----3---------------3--0-------3--------------------------------------------------------|

[Bridge] (First two bars is bass alone, than the guitar comes in) 

e|--0-0--------------------------------------------------------------0-0-------------------|
B|--3-3--------------------------------------------------------------3-3-------------------|
G|--2-2--2*----------------------------------------------------------2-2--2*---------------|
D|--0-0--2*----------------------------------------------------------0-0--2*---------------|
A|-------0*---------5---4-----------5---4-----------5---4-----------------0*---------------|
E|-----------12\------0---3~-0-3-4----0---3~-0-3-4----0---3~-0-3-4-------------------------|

[Solo]

I didn't figure out the solo yet. If you've got it - put it in the comment section and I'll add it :)

[Verse]

e|---0*----------0-0-------------0*-----0*---------------0-0------------------------------|
B|---0*-----3-3--3-3----------3*--------0*----------3-3--3-3------------------------------|
G|---4*-----0-0--2-2--2-2*--------------4*----------0-0--2-2--2-2*------------------------|
D|---2*-----0-0--0-0--2-2*--------------2*----0-2---0-0--0-0--2-2*------------------------|
A|---2*-----x-x-------0-0*--------------2*----0-2---x-x-------0-0*------------------------|
E|----------3-3-------------------------------------3-3-----------------------------------|

[Chorus & Outro]

e|--0-0-------------------------0-------------------0-------------------------------------|
B|--3-3-------------------------3-------------------3-------------------------------------|
G|--2-2--2-2-------2-2----------2-----2*------------2-----2*----2-2-2---------------------|
D|--0-0--2-2-------2-2-----2----0-----2*-------2----0-----2*----2-2-2-----2---------------|
A|-------0-0-------0-0-----2----------0*-------2----------0*----0-0-0-----2---------------|
E|------------3-3-------3--0-------3--------3--0-------3---------------3--0---------------|

e|--0--------------------------0----------------------------------------------------------|
B|--3--------------------------3----------------------------------------------------------|
G|--2-----2*----2-2-2----------2-----2-2*----2-2-2----------------------------------------|
D|--0-----2*----2-2-2-----2----0-----2-2*----2-2-2-----2----------------------------------|
A|--------0*----0-0-0-----2----------0-0*----0-0-0-----2----------------------------------|
E|-----3---------------3--0-------3-----------------3--0----------------------------------|

e|--0--------------------------0----------------------------------------------------------|
B|--3--------------------------3----------------------------------------------------------|
G|--2-----2*----2-2-2----------2-----2-2*----2-2-2----------------------------------------|
D|--0-----2*----2-2-2-----2----0-----2-2*----2-2-2-----2----------------------------------|
A|--------0*----0-0-0-----2----------0-0*----0-0-0-----2----------------------------------|
E|-----3---------------3--0-------3-----------------3--0----------------------------------|

e|--0--------------------------0-----0-0--------------------------------------------------|
B|--3--------------------------3-----0-0--------------------------------------------------|
G|--2-----2*----2-2-2----------2-----2-2*-------------------------------------------------|
D|--0-----2*----2-2-2-----2----0-----1-1*-------------------------------------------------|
A|--------0*----0-0-0-----2----------2-2*-------------------------------------------------|
E|-----3---------------3--0-------3-------------------------------------------------------|

e|---0*----------0-0-------------0*-----0*---------------0-0------------------------------|
B|---0*-----3-3--3-3----------3*--------0*----------3-3--3-3------------------------------|
G|---4*-----0-0--2-2--2-2*--------------4*----------0-0--2-2--2-2*------------------------|
D|---2*-----0-0--0-0--2-2*--------------2*----0-2---0-0--0-0--2-2*------------------------|
A|---2*-----x-x-------0-0*--------------2*----0-2---x-x-------0-0*------------------------|
E|----------3-3-------------------------------------3-3-----------------------------------|

e|--0-0-----------------------------------------------------------------------------------|
B|--3-3-----------------------------------------------------------------------------------|
G|--2-2--2-2-------2-2--------------------------------------------------------------------|
D|--0-0--2-2-------2-2-----2--------------------------------------------------------------|
A|-------0-0-------0-0-----2--------------------------------------------------------------|
E|------------3-3-------3--0--------------------------------------------------------------|
Suggest correction
Give kudos to tab author, rate the tab!
1 2 3 4 5
comments
print report bad tab
guest
You may want to rate the tab now too:
select rating
Wanna post a correction for this tab? Suggest correction