Oops, an error
Loading. Please wait.

Elevate tab

version 1
version 1

Whole song

Interactive

8,993 views 27 this week
no commentswrite comment
1 2 3 4 5
x 4
add to favorites
×
Save as Personal and add changes to this tab that will be seen only by you. Learn more ›
×
You can save this tab as Personal to edit and correct it or add notes. All changes will be seen only by you. Learn more »
launch autoscroll
font size
0
reset
how to read this tab
guitar tuner
edit
Autoscroll
slow
fast
+/-
esc
set tempo
stop
Author
-------------------------------------------------------------------------------
                             ELEVATE - The Winery Dogs
-------------------------------------------------------------------------------
Tabbed by: Leonsuper


[Intro] (00:00)

e|----------------------------------------------------------------------|
B|--------------------------------------------------------------------3-|
G|--------------------------------------------------------------------2-|
D|-7b8r7--5-------------------------------5--7b8r7--5-----------------0-|
A|-----------7--------5--7----------5------------------7--------5--7----|
E|--------------0--3--------0--3/7-----7------------------0--3----------|

e|--------------------------------------------------------------------------------|
B|--------------------------------------------------------------------------------|
G|--------------------------------------------------------------------------------|
D|-7b8r7--5----------------------------5--7b8r7p5p0h5h7--12p7p5--14p5h7--12p7p5p0-|
A|-----------7--------5--7-------5------------------------------------------------|
E|--------------0--3--------0/7-----7---------------------------------------------|

e|------------------------------------------------------------------------------|
B|------------------------------------------------------------------------------|
G|-----------------------------------------------------2--2--2------------------|
D|-----------------------------------------------------2--2--2-----2-------/14~-|
A|-12p7p5--14p5h7--12p7p5p0--10p7p5--12p5h7--10p7p5p0--0--0--0-----2------------|
E|--------------------------------------------------------------3--0------------|


[Verse] (0:19)

e|--------------------------------------------------------------------------------|
B|--------------------------------------------------------------------------------|
G|--------------------------------------------------------------------------------|
D|-7b8r7--5----------------------------5--7b8r7p5p0h5h7--12p7p5--14p5h7--12p7p5p0-|
A|-----------7--------5--7-------5------------------------------------------------|
E|--------------0--3--------0/7-----7---------------------------------------------|

e|-------------------------------------------------------------------|
B|-------------------------------------------------------------------|
G|-----------------------------------------------------2--2--2-------|
D|-----------------------------------------------------2--2--2-----2-|
A|-12p7p5--14p5h7--12p7p5p0--10p7p5--12p5h7--10p7p5p0--0--0--0-----2-|
E|--------------------------------------------------------------3--0-|

e|------------------------------------------------------------------------------|
B|------------------------------------------------------------------------------|
G|------------------------------------------------------------------------------|
D|-7b8r7--5----------------------------5--7b8r7p5p0h2p0h2p0h2p0h2p0h2p0h2p0h2p0-|
A|-----------7--------5--7-------5----------------------------------------------|
E|--------------0--3--------0/7-----7-------------------------------------------|


[Chorus] (0:55)

e|-5--4--4-------------------------------------9------------7---------------------------------------|
B|-5--5--5-------------------------------------10--------9--7---------------------------------------|
G|-6--4--4-------------------------------------9---------9--8---------------------------------------|
D|-7--6--7-------------------------------9/11--11--------9--9--2--2h4--4/6--6/9--9/11--11/14--14/16-|
A|----------------7--------7--9b10r9--7------------9/11--------x--x---------------------------------|
E|----------7--9-----7--9--------------------------------------0--0h2--2/4--4/7--7/9----9/12--12/14-|

e|-5--4--7----------12---------12--------------------9------------777777777777-|
B|-5--5--7--12--14------12--14-----12--14--12--------10--------9--777777777777-|
G|-6--4--8-------------------------------------------9---------9--888888888888-|
D|-7--6--9-------------------------------------9/11--11--------9--999999999999-|
A|-------------------------------------------------------9/11------------------|
E|-----------------------------------------------------------------------------|


[Intro Reprise] (1:22)

e|----------------------------------------------------------------------|
B|--------------------------------------------------------------------3-|
G|--------------------------------------------------------------------2-|
D|-7b8r7--5-------------------------------5--7b8r7--5-----------------0-|
A|-----------7--------5--7----------5------------------7--------5--7----|
E|--------------0--3--------0--3/7-----7------------------0--3----------|

e|--------------------------------------------------------------------------------|
B|--------------------------------------------------------------------------------|
G|--------------------------------------------------------------------------------|
D|-7b8r7--5----------------------------5--7b8r7p5p0h5h7--12p7p5--14p5h7--12p7p5p0-|
A|-----------7--------5--7-------5------------------------------------------------|
E|--------------0--3--------0/7-----7---------------------------------------------|

e|--------------------------------------------------------------------|
B|--------------------------------------------------------------------|
G|-----------------------------------------------------2--2--2--------|
D|-----------------------------------------------------2--2--2-----2--|
A|-12p7p5--14p5h7--12p7p5p0--10p7p5--12p5h7--10p7p5p0--0--0--0-----2--|
E|--------------------------------------------------------------3--0--|


[Verse 2] (1:39)

e|--------------------------------------------------------------------------------|
B|--------------------------------------------------------------------------------|
G|--------------------------------------------------------------------------------|
D|-7b8r7--5----------------------------5--7b8r7p5p0h5h7--12p7p5--14p5h7--12p7p5p0-|
A|-----------7--------5--7-------5------------------------------------------------|
E|--------------0--3--------0/7-----7---------------------------------------------|

e|-------------------------------------------------------------------|
B|-------------------------------------------------------------------|
G|-----------------------------------------------------2--2--2-------|
D|-----------------------------------------------------2--2--2-----2-|
A|-12p7p5--14p5h7--12p7p5p0--10p7p5--12p5h7--10p7p5p0--0--0--0-----2-|
E|--------------------------------------------------------------3--0-|

e|------------------------------------------------------------------------------|
B|------------------------------------------------------------------------------|
G|------------------------------------------------------------------------------|
D|-7b8r7--5----------------------------5--7b8r7p5p0h2p0h2p0h2p0h2p0h2p0h2p0h2p0-|
A|-----------7--------5--7-------5----------------------------------------------|
E|--------------0--3--------0/7-----7-------------------------------------------|


[Chorus 2] (2:18)

e|-5--4--4-------------------------------------9------------7---------------------------------------|
B|-5--5--5-------------------------------------10--------9--7---------------------------------------|
G|-6--4--4-------------------------------------9---------9--8---------------------------------------|
D|-7--6--7-------------------------------9/11--11--------9--9--2--2h4--4/6--6/9--9/11--11/14--14/16-|
A|----------------7--------7--9b10r9--7------------9/11--------x--x---------------------------------|
E|----------7--9-----7--9--------------------------------------0--0h2--2/4--4/7--7/9----9/12--12/14-|

e|-5--4--7----------12---------12--------------------9------------777777777-|
B|-5--5--7--12--14------12--14-----12--14--12--------10--------9--777777777-|
G|-6--4--8-------------------------------------------9---------9--888888888-|
D|-7--6--9-------------------------------------9/11--11--------9--999999999-|
A|-------------------------------------------------------9/11---------------|
E|--------------------------------------------------------------------------|


[Instrumental] (2:49)

e|--12--12---------------------------------------------------------------------------------4-4-4-4--4-4-4-4-|
B|--12--12---------------------------------------------------------------------------------5-5-5-5--5-5-5-5-|
G|-------------------------------------------------------------------------4-----6h4-------4-4-4-4--4-4-4-4-|
D|---------------11---11-------------------------------------------2--4/6-----6-------6h4--4-4-4-4--4-4-4-4-|
A|-----------14-----------14---------------------------------2--4-------------------------------------------|
E|----------------------------/14--12\9--12h9\7--9--0--2--4-------------------------------------------------|

e|-x-x-x-x-----x-----x----x----x----x----x----x-----12--------|
B|-x-x-x-12+---12+---12+--12+--12+--12+--12+--12+---12/14--14-|
G|-x-x-x-x-----x-----x----x----x----x----x----x---------------|
D|------------------------------------------------------------|
A|------------------------------------------------------------|
E|------------------------------------------------------------|

e|----------------------------------------------------------------------------------------|
B|----------------------------------------------------------------------------------------|
G|-11h12p11p9--------9-------------------------------------------9----------9----------9~-|
D|-------------11p9-----11p9------11------9h11p9--------------------11--11-----11--11-----|
A|----------------------------11------11----------11p9------9~----------------------------|
E|------------------------------------------------------12--------------------------------|

E|-12--12--12---------------------------------------------------12+-|
B|-12--12--12---------------------------------------------------12+-|
G|-------------11--9b-----------------------------------------------|
D|--------------------11~---------------------9-9--11-11p9----------|
A|-------------------------------------11-11----------------11------|
E|-------------------------9-9--12-12-------------------------------|


2nd Guitar during solo (03:17)

e|-----------------------------------------------------------------|
B|-----------------------------------------------------------------|
G|-----------------------------------------------------------------|
D|--------------------7--6--7/9---------------------7--6--7--7/6/7-|
A|--------------------5--4--5/7---------------------5--4--5--5/4/5-|
E|-0--3p0--0--5p0--0-------------0--3p0--0--5p0--0-----------------|

e|------------------------------------------------------------------|
B|------------------------------------------------------------------|
G|------------------------------------------------------------------|
D|--------------------7--6--7/9---------------------7--6--7/6/7/6/7-|
A|--------------------5--4--5/7---------------------5--4--5/4/5/4/5-|
E|-0--3p0--0--5p0--0-------------0--3p0--0--5p0--0------------------|


[Solo] (3:26)

e|17b19--20b22-20b22-20b22------12------------12---------------------------------------------------|
B|------------------------------15b17--13h14-----14-----------------12--15h14h12-------------------|
G|---------------------------------------------------14p11------12----------------14h11------------|
D|----------------------------------------------------------14---------------------------14h12-----|
A|----------------------------------------------------------------------------------------------14-|
E|-------------------------------------------------------------------------------------------------|

e|---------------------17---------------------------------------------------|
B|-------------15--17------17--15----------------------------------------15-|
G|-----12--14----------------------14p12-----------------------------16-----|
D|-14-------------------------------------14---------------------17---------|
A|--------------------------------------------14----------14h17-------------|
E|------------------------------------------------15--14--------------------|

e|-19------15\14--17---------15---------12-----------|
B|-----17-------------15p14------14\12------13p12p11-|
G|---------------------------------------------------|
D|---------------------------------------------------|
A|---------------------------------------------------|
E|---------------------------------------------------|

e|--------------------------------------10---------12--------|
B|-11----------------------------11h12------12h11------11\10-|
G|-----12p11------12------11h12------------------------------|
D|------------14------14-------------------------------------|
A|-----------------------------------------------------------|
E|-----------------------------------------------------------|

e|----------------------10--12--10--------------------------------|
B|-11h10------11h12h14--------------14p12p11--14p12p11--12p11-----|
G|--------12---------------------------------------------------14-|
D|----------------------------------------------------------------|
A|----------------------------------------------------------------|
E|----------------------------------------------------------------|

e|---------------10---------10--12--10---------12--14--12\11\10--14--15p14-----------------19--22-|
B|-----11h12h14------14p12--------------12b14-------------------------------17\15--19--20---------|
G|-12---------------------------------------------------------------------------------------------|
D|------------------------------------------------------------------------------------------------|
A|------------------------------------------------------------------------------------------------|
E|------------------------------------------------------------------------------------------------|


[Bridge] (3:44)

e|------------------------------------------------------------------|
B|------------------------------------------------------------------|
G|------------------------------------------------------------------|
D|--------------------7--6--7/9---------------------7--6--7/6/7/6/7-|
A|--------------------5--4--5/7---------------------5--4--5/4/5/4/5-|
E|-0--3p0--0--5p0--0-------------0--3p0--0--5p0--0------------------|

e|-----------------------------------|
B|-----------------------------------|
G|---------------------------------7-|
D|--------------------7--6--7/9----7-|
A|--------------------5--4--5/7----5-|
E|-0--3p0--0--5p0--0-----------------|


[Final Chorus] (3:57)

e|-5--4--4-------------------------------------9------------7----------------------------|
B|-5--5--5-------------------------------------10--------9--7----------------------------|
G|-6--4--4-------------------------------------9---------9--8----------------------------|
D|-7--6--7-------------------------------9/11--11--------9--9-----2--2h4--4/6--6/9--9/11-|
A|----------------7--------7--9b10r9--7------------9/11-----------x--x-------------------|
E|----------7--9-----7--9-----------------------------------------0--0h2--2/4--4/7--7/9--|

e|-5--4--7----------12---------12--------------------9------------777777777777-|
B|-5--5--7--12--14------12--14-----12--14--12--------10--------9--777777777777-|
G|-6--4--8-------------------------------------------9---------9--888888888888-|
D|-7--6--9-------------------------------------9/11--11--------9--999999999999-|
A|-------------------------------------------------------9/11------------------|
E|-----------------------------------------------------------------------------|


[Outro] (4:28)

e|----------------------------------------------------------------------|
B|--------------------------------------------------------------------3-|
G|--------------------------------------------------------------------2-|
D|-7b8r7--5-------------------------------5--7b8r7--5-----------------0-|
A|-----------7--------5--7----------5------------------7--------5--7----|
E|--------------0--3--------0--3/7-----7------------------0--3----------|

e|--------------------------------------------------------------------------------|
B|--------------------------------------------------------------------------------|
G|--------------------------------------------------------------------------------|
D|-7b8r7--5----------------------------5--7b8r7p5p0h5h7--12p7p5--14p5h7--12p7p5p0-|
A|-----------7--------5--7-------5------------------------------------------------|
E|--------------0--3--------0/7-----7---------------------------------------------|

e|-----------------------------------------------------------------------------------------------------|
B|----------------------------------------------------------------------------------3------------------|
G|----------------------------------------------------------------------------------2-------2b3r2------|
D|-------------------------------------------------------------------------------2--0-------2b3r2----2-|
A|-12p7p5--14p5h7--12p7p5p0--10p7p5--14p5h7--12p7p5p0--10p7p5--12p5h7--10p7p5p0--2----------0--------2-|
E|-------------------------------------------------------------------------------0-----------------3-0-|


*********************************************************

| /  slide up
| \  slide down
| h  hammer-on
| p  pull-off
| ~  vibrato
| +  harmonic
| x  Mute note

*********************************************************

            
            
Suggest correction
Creating personal tab
Creating personal tab
You can edit any tab online and save it as your Personal.

You can edit, replace or remove any tab part or add personal notes – all changes will be seen only by you.

Personal tabs can be accessed anytime from any device, even offline.
Learn more »
comments
print report bad tab
guest
You may want to rate the tab now too:
select rating
Wanna post a correction for this tab? Suggest correction