Oops, an error
Loading. Please wait.

Das Grau Unserer Zeit ukulele

76 views 1 this week
no commentswrite comment
1 2 3 4 5
3 more votes to show rating
add to favorites
×
Save as Personal and add changes to this tab that will be seen only by you. Learn more ›
×
You can save this tab as Personal to edit and correct it or add notes. All changes will be seen only by you. Learn more »
launch autoscroll
font size
0
reset
transpose
0
reset
display chords
guitar tuner
edit
Autoscroll
slow
fast
+/-
esc
set tempo
stop
Strumming
There is no strumming pattern for this song yet. and get +5 IQ
[2x Intro:]
   A      E      F#m     C#m    (Von A bis F#m clean und das C#m dann mit Distortion)
(Kazoo:)
E|--------------------------------------------------------------------|
H|----------------2---------------------------------------------------|
G|---2-2--4-----------4--2-1------------------------------------------|
D|---------------------------------------2--4-4--6-7-6----------------|
A|--------------------------------------------------------------------|
E|--------------------------------------------------------------------|


[Verse 1:]
             A                    E
Ich hab heut' morgen geseh'n, wie die Sonne aufging,
        F#m                  C#m
Sie war schwarz und duester anzuschau'n.
       A                    E
Wo der Hass und die Angst vor'm Versagen regiert,
       F#m                      C#m
Ist es schwer auf die Vernunft zu bau'n.
        A                                  E
Wer sie einsetzt, gilt als Traeumer, doch wenn alle "traeumen" wuerden,
              D                 E                     D A
Waer man schon laengst aus dem realen Alptraum der Dummheit erwacht.


[Chorus 1:]
     A         E        F#m             D
Lasst uns trinken Brueder und Schwestern dieser Welt,
       A         B      E D C#m B A
Auf die Buerokratie, die hier regiert!
        A           E          F#m              D
Und ein Hoch auf alle die, die nur trinken und nichts tun!
          A          B                E  D  C#m A
Lasst uns trinken, auf dass das Grau unsrer Zeit nicht eskaliert.


[2x Intro:]
   A      E      F#m     C#m    (Von A bis F#m clean und das C#m dann mit Distortion)
(Kazoo:)
E|--------------------------------------------------------------------|
H|----------------2---------------------------------------------------|
G|---2-2--4-----------4--2-1------------------------------------------|
D|---------------------------------------2--4-4--6-7-6----------------|
A|--------------------------------------------------------------------|
E|--------------------------------------------------------------------|


[Verse 2:]
    A                            E
Ich hab heut' Abend geseh'n, wie der Tag zu ende ging,
        F#m                 C#m
Mit nem erleichterten Laecheln im Gesicht. Er verstand nicht
      A                            E
Diese Angst vor dem Tier, das nunmal in uns steckt,
       F#m                         C#m
Diesen verzweifelten Kampf gegen uns selbst.
           A                              E
Wir sollten uns dem endlich stellen, was uns soviel Sorgen macht,
           F#m                    D
Die Loesung liegt in uns und wer sie uebersieht
     E        D   A
Hat sich selber umgebracht!


[Chorus 2:]
     A         E        F#m             D
Lasst uns Fi**en Brueder und Schwestern dieser Welt,
       A         B      E D C#m B A
Ein Fick auf die Buerokratie, die hier regiert!
        A           E          F#m              D
Und ein hoch auf alle die, die nur lieben und es spür'n!
          A          B                E  D  C#m A
Lasst uns lieben, auf dass das Grau unsrer Zeit nicht eskaliert.


[4x Intro:] Wobei alle Akkorde nun mit Distortion gespielt werden und bei der Solo-Git. 
am Ende die D-Saite in den in den 18. Bund gezogen.
   A      E      F#m     C#m
(Kazoo:)
E|--------------------------------------------------------------------|
H|----------------2---------------------------------------------------|
G|---2-2--4-----------4--2-1------------------------------------------|
D|---------------------------------------2--4-4--6-7-6----------------|
A|--------------------------------------------------------------------|
E|--------------------------------------------------------------------|


[Und darauf folgt dann (In etwa):]

2x mal:
  A      E      F#m        D    [Akkorde wieder Clean - Solo-git. Distortion]
(Kazoo:)
E|--------------------------------------------------------------------------------------|
H|--------------------------------------------------------------------------------------|
G|--2-2-2----------4-4-4---------6-6-6-------------7-6-4-6-2----------------------------|
D|-----------2---------------2---------------7------------------------------------------|
A|--------------------------------------------------------------------------------------|
E|--------------------------------------------------------------------------------------|


A      E    F#m        D
So viele Farben ersticken im Grau,
A      E    F#m        D
So viele Triebe unterdrueckt, genau,
    A     E    F#m     D
Wie all' die Dinge, die halt Wirklichkeit sind
     Cis D Cis
Und  dazu  gehoeren!


[4x Intro:]
   A      E      F#m     C#m
(Kazoo:)
E|--------------------------------------------------------------------|
H|----------------2---------------------------------------------------|
G|---2-2--4-----------4--2-1------------------------------------------|
D|---------------------------------------2--4-4--6-7-6----------------|
A|--------------------------------------------------------------------|
E|--------------------------------------------------------------------|

Dann 8-Takte lang A clean spielen und in den Refrain uebergehen:


[Chorus 3:]
         A   E        F#m             D
Lasst uns leben Brueder und Schwestern dieser Welt,
      A         B      E D C#m B A
Ohne  Buerokratie, die noch regiert!
        A           E          F#m        D
Und ein hoch auf alle die, die nur leben und es spuern!
         A        B                 E    D  
B   A      [von "Zeit" an, auf jede Powerchord anschlagen]
Lasst uns leben, auf dass das Grau unsrer Zeit  nicht  ES -  KA - LIERT!


[Outro:]
  A A A A
E|----------------------|
H|---5------------------|
G|------4--2------------|
D|----------------------|
A|----------------------|
E|----------------------|
Suggest correction
Creating personal tab
Creating personal tab
You can edit any tab online and save it as your Personal.

You can edit, replace or remove any tab part or add personal notes – all changes will be seen only by you.

Personal tabs can be accessed anytime from any device, even offline.
Learn more »
Give kudos to tab author, rate the tab!
1 2 3 4 5
comments
print report bad tab
guest
Wanna post a correction for this tab? Suggest correction