Oops, an error
Loading. Please wait.

Addicted To The Cure tab

1,861 views 1 this week
no commentswrite comment
1 2 3 4 5
1 last vote to show rating
add to favorites
×
Save as Personal and add changes to this tab that will be seen only by you. Learn more ›
×
You can save this tab as Personal to edit and correct it or add notes. All changes will be seen only by you. Learn more »
launch autoscroll
font size
0
reset
how to read this tab
guitar tuner
edit
Autoscroll
slow
fast
+/-
esc
set tempo
stop
Author
Difficulty
-------------------------------------------------------------------------------
                  Addicted To The Cure - The Wombats
-------------------------------------------------------------------------------
Tabbed by: Maarten
Email: maartencake@hotmail.nl

Tuning: EADGBe

  Intro (tremolo picking)
e|---------------------------------------------------------------------------|
B|---------------------------------------------------------------------------|
G|-13----11----6----4----8----16-- x2 ---------------------------------------|
D|---------------------------------------------------------------------------|
A|---------------------------------------------------------------------------|
E|---------------------------------------------------------------------------|

  Verse (It's a synth part but you can play the chords)

   F#m  B   E C#m  D
e|--2---2---7--4---5------------- Tremolo picking ---------------------------|
B|--2---4---9--5---7----- then ---11---13---16-------------------------------|
G|--2---4---9--6---7---------------------------------------------------------|
D|--4---4---9--6---7---------------------------------------------------------|
A|--4---2---7--4---5---------------------------------------------------------|
E|--2------------------------------------------------------------------------|

  Chorus
e|---9----7----4---------9----7----4-----------------------------------------|
B|--11----9----5--------11----9----5-----------------------------------------|
G|--11----9----6--------11----9----6-----------------------------------------|
D|--11----9----6--------11----9----6-----------------------------------------|
A|---9----7----4---------9----7----4-----------------------------------------|
E|---------------------------------------------------------------------------|

  Slow part
e|---5----7----44-4-----------12----------12----------12----------12---------|
B|---5----9----55-5--------14----14----14----14----14----14----14------------|
G|---6----9----66-6-----14----------14----------14----------14---------------|
D|---7----9----66-6----------------------------------------------------------|
A|---7----7----44-4----------------------------------------------------------|
E|---5-----------------------------------------------------------------------|

  Repeat Verse chord pattern

  Verse first part nothing, but then (Tremolo Picking)
e|---------------------------------------------------------------------------|
B|---------------------------------------------------------------------------|
G|-11---13---16-----11---13---16--- x2 ---11---13---16-----------------------|
D|---------------------------------------------------------------------------|
A|---------------------------------------------------------------------------|
E|---------------------------------------------------------------------------|

  Chorus
e|---9----7----4---------9----7----4-----------------------------------------|
B|--11----9----5--------11----9----5-----------------------------------------|
G|--11----9----6--------11----9----6-----------------------------------------|
D|--11----9----6--------11----9----6-----------------------------------------|
A|---9----7----4---------9----7----4-----------------------------------------|
E|---------------------------------------------------------------------------|

  Slow part
e|---5----7----44-4-----------12----------12----------12----------12---------|
B|---5----9----55-5--------14----14----14----14----14----14----14----14------|
G|---6----9----66-6-----14----------14----------14----------14---------------|
D|---7----9----66-6----------------------------------------------------------|
A|---7----7----44-4----------------------------------------------------------|
E|---5-----------------------------------------------------------------------|

e|---------12----------12----------12----------12----------------------------|
B|------14----14----14----14----14----14----14----14-------------------------|
G|---13----------13----------13----------13----------------------------------|
D|---------------------------------------------------------------------------|
A|---------------------------------------------------------------------------|
E|---------------------------------------------------------------------------|

e|---------12----------12----------12-----------12---------------------------|
B|------14----14----14----14----14----14-----14----14------------------------|
G|---14----------14----------14----------14----------------------------------|
D|---------------------------------------------------------------------------|
A|---------------------------------------------------------------------------|
E|---------------------------------------------------------------------------|

e|---------12----------12----------12----------12----------------------------|
B|------14----14----14----14----14----14----14----14-------------------------|
G|---13----------13----------13----------13----------------------------------|
D|---------------------------------------------------------------------------|
A|---------------------------------------------------------------------------|
E|---------------------------------------------------------------------------|

Outro

Part 1: Verse chord pattern   x2
Part 2: Intro Tabs            x2

            
            
Suggest correction
Creating personal tab
Creating personal tab
You can edit any tab online and save it as your Personal.

You can edit, replace or remove any tab part or add personal notes – all changes will be seen only by you.

Personal tabs can be accessed anytime from any device, even offline.
Learn more »
Give kudos to tab author, rate the tab!
1 2 3 4 5
comments
print report bad tab
guest
You may want to rate the tab now too:
select rating
Wanna post a correction for this tab? Suggest correction