Oops, an error
Loading. Please wait.

Backfire At The Disco bass

version 1
version 1

Whole song

Interactive

9,321 views 3 this week
4 commentsread comments
1 2 3 4 5
x 8
add to favorites
×
Save as Personal and add changes to this tab that will be seen only by you. Learn more ›
×
You can save this tab as Personal to edit and correct it or add notes. All changes will be seen only by you. Learn more »
launch autoscroll
font size
0
reset
guitar tuner
edit
Autoscroll
slow
fast
+/-
esc
set tempo
stop
Author
Difficulty
----------------------------------------------------------------------------
		   BACKFIRE AT THE DISCO - THE WOMBATS
----------------------------------------------------------------------------

Tabbed By : Steve Healy
e-mail: steeeeeve13@hotmail.com

Tuning: Standard EADG

Intro
G|-------------------------------------------------------------------------|
D|-7-7-6-6---------7-7-6-6---------7-7-6-6---------------------------------|
A|---------5-5-4-4---------5-5-4-4---------5-5-----------------------------|
E|---------------------------------------------5---------------------------|

1st Verse "Its 8 o clock and im feelin fine"...
G|---------------------------------------------6-4---------6-4---------6-4-|
D|----------------------7--------------0-2-2-2-----0-2-2-2-----2-4-4-4-----|
A|-------------------------------------------------------------------------|
E|-5----------5-----------------5-5-5--------------------------------------|

G|---------6-4---------6-4---------6--4---------6-4---------4-2------------|
D|-2-4-4-4-----2-4-4-4-----2-4-4-4------0-2-2-2-----0-2-2-2----------------|
A|-------------------------------------------------------------------------|
E|-------------------------------------------------------------------------|

1st Chorus
G|-------------------------------------------------------------------------|
D|-------------------------------------------------------------------------|
A|-----------------------------------------------------------------2-2-2-2-|
E|-5-5-5-5-5-5-5-5-5-5-5-5-5-5-5-5-2-2-2-2-2-2-2-2-2-2-2-2-2-2-2-2---------|

G|-------------------------------------------------------------------------|
D|-------------------------7-7-7-7-7-7-7-7-6-6-6-6-6-6-6-------------------|
A|-2-2-2-2-5-5-5-5-5-5-5-5-------------------------------------------------|
E|-------------------------------------------------------------------------|

Post-Chrorus" x2
G|-------------------------------------------------------------------------|
D|-------------------------------------------------------------------------|
A|-4-4-4-4-4-4-4-4-5-5-5-5-5-5-5-5-9-9-9-9-9-9-9-9-7-7-7-7-7-7-7-7---------|
E|-------------------------------------------------------------------------|

2nd Verse "It was a chat up line..." 
G|----------------------------------6-4---------6-4---------6-4---------4-2|
D|--------------------------2-4-4-4-----2-4-4-4-----0-2-2-2-----0-2-2-2----|
A|-------------------------------------------------------------------------|
E|-5-------------5---------------------------------------------------------|

"well its 3 clock"...
G|---------6-4---------6-4---------6-4---------6-4---------6-4---------6-4-|
D|-------------------------------------------------------------------------|
A|-------------------------------------------------0-5-5-5-----0-5-5-5-----|
E|-0-5-5-5-----0-5-5-5-----0-2-2-2-----0-2-2-2-----------------------------|

G|-------------------------------------------------------------------------|
D|-------------------------------------------------------------------------|
A|-------------------------------------------------------------------------|
E|-5-----5-----5-5-5555-5-5-5-5-5-5-5-5-5-5-5-5-5-5-5-5-2-2-2-2-2-2-2-2-2-2|

G|-------------------------------------------------------------------------|
D|---------------------------------7-7-7-7-7-7-7-7-7-7-6-6-----------------|
A|-2-2-2-2-2-2-2-2-5-5-5-5-5-5-5-5-------------------------5-5-4-4---------|
E|-------------------------------------------------------------------------|

followed by
1st Chorus x1
Post Chorus x2
Then extended chorus changes "yeah it baackfired at the disco"
3rd bar
G|-------------------------------------------------------------------------|
D|-------------------------------------------------------------------------|
A|-4-4-4-4-4-4-4-4-5-5-5-5-5-5-5-5-----------------7-7-7-7-7-7-7-7---------|
E|---------------------------------2-2-2-2-2-2-2-2-------------------------|
4th bar
G|-------------------------------------------------------------------------|
D|-------------------------------------------------------------------------|
A|-4-4-4-4-4-4-4-4-5-5-5-5-5-5-5-5-----------------------------------------|
E|---------------------------------2-2-2-2-2-2-2-2-0-0-0-0-0-0-0-0-0-------|

5th bar
G|-------------------------------------------------------------------------|
D|-7-7-7-7-7-7-7-7-----------------9-9-9-9-9-9-9-9-------------------------|
A|-----------------5-5-5-5-5-5-5-5-----------------7-7-7-7-7-7-7-7---------|
E|-------------------------------------------------------------------------|

6th bar
G|-------------------------------------------------------------------------|
D|-7-7-7-7-7-7-7-7---------------------------------------------------------|
A|-----------------5-5-5-5-5-5-5-5-----------------------------------------|
E|---------------------------------7-7-7-7-7-7-7-7-7-0-0-0-0-0-0-0-0-0-----|

Outro
G|-------------------------------------------------------------------------|
D|-7-----------------------9---------------------7-----------------9-------|
A|------------5-------------------------7------------------5-------------7-|
E|-------------------------------------------------------------------------|

G|-------------------------------------------------------------------------|
D|-77777777-----------99999999----------77777777----------99999999---------|
A|----------555555555----------77777777----------55555555----------77777777|
E|-------------------------------------------------------------------------|

G|-------------------------------------------------------------------------|
D|-77777777----------------------------77777777----------------------------|
A|----------55555555----------77777777----------55555555-------------------|
E|-------------------55555555----------------------------77777777-00000000-|

Finish on A!

Amazing song, please let me know if you found any different versions or if i have made a mistake




| /  slide up
| \  slide down
| h  hammer-on
| p  pull-off
| ~  vibrato
| +  harmonic
| x  Mute note
===============================================================================
Suggest correction
Creating personal tab
Creating personal tab
You can edit any tab online and save it as your Personal.

You can edit, replace or remove any tab part or add personal notes – all changes will be seen only by you.

Personal tabs can be accessed anytime from any device, even offline.
Learn more »
comments
print report bad tab
4 comments total. Showing first comments.
0 reply
Stud_Muffin 582 Dec 10, 2007 09:25 AM

good stuff man, cheers!

0 reply
littledan23 52 Apr 24, 2008 12:58 AM

amazing tab :):)
well done !

0 reply
littledan23 52 Apr 24, 2008 12:59 AM

shit !! i commented the worng one haha what a nuget :)
i was meant to say amzing tab to moving to new york tab you also did haha
but this one is probs just as good :)

guest
You may want to rate the tab now too:
select rating
Wanna post a correction for this tab? Suggest correction