Oops, an error
Loading. Please wait.

Be Your Shadow Tab

79 views 1 this week
no commentswrite comment
1 2 3 4 5
3 more votes to show rating
add to favorites
launch autoscroll
font size
0
reset
how to read this tab
guitar tuner
Autoscroll
slow
fast
+/-
esc
set tempo
stop
Help us to improve Ultimate-Guitar.com Take our survey!
×
Author
About this tab version
This tab is for a different version of the song to the other tabs currently available. Was this info helpful? Yes No
Based on the alternate version they did for Triple J https://www.youtube.com/watch?v=lxjuwbGshvM. You have to 
use finger picking for the tab, but the chords can just be strummed if you want. It might look kind of 

[Verse 1]

e|------------------|
B|-----6------------|
G|-3-------6---5----|
D|------------------|
A|-----4------------|
E|-2-------6---4----| (x2)

e|------------------|
B|-7---6------------|
G|---------6---5----|
D|------------------|
A|-6---4------------|
E|---------6---4----| 

e|--------------|
B|-7---6--------|
G|---------5----|
D|--------------|
A|-6---4--------|
E|---------4----| 

Gb                    Db         Bb                     Ab
Tonight we'll both go M.I.A., in different towns but in similar ways
   
Gb                            Db      Bb                  Ab
I've tried my best, best to forget, but I can't, I can't, I can't


Ebm                                Db                   Bbm            Ab 
Tonight we'll scratch each other's face, if it's in the moment no one complains

Ebm                                Db                   Ab   
I‘ve tried my best to move along, but I can't, I can't, I can't


[Chorus]

Guitar 1

e|------------------|
B|-----6------------|
G|-3-------6---5----|
D|------------------|
A|-----4------------|
E|-2-------6---4----| (x2)

Guitar 2
e|-9---9---9---9---9---9---9---9---9---9---9---9---11---11--11---11-------|
B|---9---9---9---9---9---9---9---9---9---9---9---9----9---9----9----9-----|
G|------------------------------------------------------------------------|
D|------------------------------------------------------------------------|
A|------------------------------------------------------------------------|
E|------------------------------------------------------------------------| (x2)


Gb                 Db                  Bb                         Ab      
Kiss me with your fist it's all right, wrap your hands around my throat I won't mind

Gb             Db               Bb          Ab 
I'm permanent, now I won't go, I just wanna be your shadow

[Verse 2]

e|------------------|
B|-----6------------|
G|-3-------6---5----|
D|------------------|
A|-----4------------|
E|-2-------6---4----| (x2)

e|------------------|
B|-7---6------------|
G|---------6---5----|
D|------------------|
A|-6---4------------|
E|---------6---4----| 

e|--------------|
B|-7---6--------|
G|---------5----|
D|--------------|
A|-6---4--------|

Gb                    Db         Bb                       Ab
Just one more uptempo tune, the suits don't care if their feet aren't blue

Gb                            Db         Bb               Ab
Are you aware of what's going on, in my heart, my heart, my heart

Ebm                Db                Bbm       Ab 
Those machine gun eyes, they fire crystals into me

Ebm                   Db                        Ab 
You're such a violent high and I'm such a loose cannon can't you see?

[Repeat Chorus]

[Middle 8]

Ebm                Bbm    Ab
And I just want to be the sum of your broken parts
Ebm                Bbm    Ab
And I just want to be your creature of the dark
Ebm                Bbm    Ab
And I just want to be the sum of your broken parts
Ebm                Bbm    Ab
And I just want to be your creature of, the dark

[Repeat Chorus for Outro]

Suggest correction
Give kudos to tab author, rate the tab!
1 2 3 4 5
comments
print report bad tab
guest
You may want to rate the tab now too:
select rating
Wanna post a correction for this tab? Suggest correction