Oops, an error
Loading. Please wait.

How I Miss Sally Bray tab

1,523 views 1 this week
no commentswrite comment
1 2 3 4 5
x 3
add to favorites
×
Save as Personal and add changes to this tab that will be seen only by you. Learn more ›
×
You can save this tab as Personal to edit and correct it or add notes. All changes will be seen only by you. Learn more »
launch autoscroll
font size
0
reset
how to read this tab
guitar tuner
edit
Autoscroll
slow
fast
+/-
esc
set tempo
stop
Author
Difficulty
Cheers. This song hasnt even been released by the wombats yet. I tabbed the song to this video
http://www.youtube.com/watch?v=xgERAVLkjKI . Cheers. joetp_10@msn.com

Intro
E|--------------------------------------|
B|--------------------------------------|
G|--------------------------------------|
D|--------------------------------------|
A|--------2-----2--3--------3---3--2----|
E|--3--3-----3--------0--0----0-------3-| x3
then
E|--------|
B|--------|
G|--------|
D|--5--7--|
A|--5--7--|
E|--3--5--|
Verse
Basically G   Em  C but using various chord positions.
E|-------------|
B|-------------|
G|--12--9------|
D|--12--9--10--|
A|--10--7--10--|
E|---------8---|
Prechorus
Ignorance is bliss etc.
E|----------|
B|----------|
G|----------|
D|--12--10--|
A|--12--10--|
E|--10--8---|

Chorus
E|---------------------------------|
B|---------------------------------|
G|---------------------------------|
D|--5--5--10--9--------------------|
A|--5--5--10--9--2--------10-9-10-9|
E|--3--3--8---7--00000000-8--7-8--7|

After Chorus
E|---------------------------------------------------------------------------|
B|---------------------------------------------------------------------------|
G|---------------------------------------------------------------------------|
D|---------------------------------------------------------------------------|
A|--------2--3--2--3-----3--3--2--0--14--14------10--10--10--14--14------10--|
E|--3--3--------------0----------------------12----------------------12------|
Verse again (High neck inversions)
Prechorus
Chorus

Bridge
How i miss, how i miss etc..
E|-----------------------|
B|-----------------------|
G|--0--4--4--3--3--2--2--|
D|-----------------------|
A|-----------------------|
E|-----------------------| couldnt count how many times..
Intro again
Back to chorus
End on chorus, end on C

            
            
Suggest correction
Creating personal tab
Creating personal tab
You can edit any tab online and save it as your Personal.

You can edit, replace or remove any tab part or add personal notes – all changes will be seen only by you.

Personal tabs can be accessed anytime from any device, even offline.
Learn more »
Give kudos to tab author, rate the tab!
1 2 3 4 5
comments
print report bad tab
guest
You may want to rate the tab now too:
select rating
Wanna post a correction for this tab? Suggest correction