Oops, an error
Loading. Please wait.

How To Pack Your Bags And Leave bass

235 views 1 this week
no commentswrite comment
1 2 3 4 5
3 more votes to show rating
add to favorites
×
Save as Personal and add changes to this tab that will be seen only by you. Learn more ›
×
You can save this tab as Personal to edit and correct it or add notes. All changes will be seen only by you. Learn more »
launch autoscroll
font size
0
reset
guitar tuner
edit
Autoscroll
slow
fast
+/-
esc
set tempo
stop
Author
---------------------------------------------------------------------
How to pack your bags and leave- The Wombats
---------------------------------------------------------------------

Tabbed By : Luke Priest
e-mail: luke.priest@hotmail.com
I hope this is ok coz it took me ages let me kno if any thing is rong.
Tuning: standard (EADG)
Intro:
G|-----------|--------|----------|--------|----------|-----------|
D|-----------|--------|----------|--------|----------|-----------|
A|-7----11---|-9---9--|-7---11---|-9---9--|-7---11---|-9---9-11-9|
E|----7----11|---9---9|---7----11|---9---9|---7----11|---9-------|

G|----------|--------------|--------|--------|
D|----------|--------------|--------|--------|
A|-7---11---|-9---9-11-10-9|7-------|7-------|
E|---7----11|---9----------|--------|--------|
Verse 1:
G|-----------------|-----------------|-----------------------|
D|-----99-------999|------------13-13|---------------13----12|
A|7777----77777----|11-11-11-11------|11-11-11-11-11----10---|
E|-----------------|-----------------|-----------------------|

G|-------------------------|-----------------|-----------------|
D|-----11-11-------11-11-11|-----99-------999|------------13-13|
A|9999-------99999---------|7777----77777----|11-11-11-11------|
E|-------------------------|-----------------|-----------------|

G|-----------------------|-------------------------|----------|
D|---------------13----12|-----11-11-------11-11-11|----------|
A|11-11-11-11-11----10---|9999-------99999---------|-77-7-77-7|
E|-----------------------|-------------------------|----------|

G|---------------------|----------|----------|----------|
D|---------------------|----------|--9-------|--9-------|
A|-11-11--11--11-11--10|-99-9-99-9|77-7-12-12|77-7-12-12|
E|---------------------|----------|----------|----------|

G|---------------|---------------|-----------|-----------|---------|
D|-----13--------|-----13--------|--11-------|--11-------|---------|
A|11-11--11-16-16|11-11--11-16-11|99--9-14-14|99--9-14-14|7//////15|
E|---------------|---------------|-----------|-----------|---------|
Chorus 1:
G|--------|--------|--------------------|-------------987|
D|--------|--------|--------------------|222-888-9999----|
A|77777777|7777----|12-11-9-7-12-11-99-7|----------------|
E|--------|--------|--------------------|----------------|

G|-------------987|--------|--------|-----------------------|------|
D|222-888-9999----|--------|--------|-----------------------|------|
A|----------------|77777777|77777777|11-11-11-11-11-11-11-11|9-----|
E|----------------|--------|--------|-----------------------|------|

Verse 2:
G|-----------------|-----------------|-----------------------|
D|-----99-------999|------------13-13|---------------13----12|
A|7777----77777----|11-11-11-11------|11-11-11-11-11----10---|
E|-----------------|-----------------|-----------------------|



G|-------------------------|-----------------|
D|-----11-11-------11-11-11|-----99-------999| (bass Stops)
A|9999-------99999---------|7777----77777----|
E|-------------------------|-----------------|

G|----------|----------|---------------|---------------|-----------|
D|--9-------|--9-------|-----13--------|-----13--------|-----------|
A|77-7-12-12|77-7-12-12|11-11--11-16-16|11-11--11-16-11|99999-99999|
E|----------|----------|---------------|---------------|-----------|

G|-----------|
D|-----------|
A|99999-99999|
E|-----------| 
Chorus 2:
G|--------|--------|--------------------|-------------987|
D|--------|--------|--------------------|222-888-9999----|
A|77777777|77777777|12-11-9-7-12-11-99-7|----------------|
E|--------|--------|--------------------|----------------|

G|-------------987|--------|--------|-----------------------|-----|
D|222-888-9999----|--------|--------|-----------------------|-----|
A|----------------|77777777|77777777|11-11-11-11-11-11-11-11|13-13|
E|----------------|--------|--------|-----------------------|-----|

G|-------|
D|-------|
A|*7-----|
E|-------|

*just play around this note at the end it’ll sound ok


| /  slide up
| \  slide down
| h  hammer-on
| p  pull-off
| ~  vibrato
| +  harmonic
| x  Mute note
=====================================================================

Suggest correction
Creating personal tab
Creating personal tab
You can edit any tab online and save it as your Personal.

You can edit, replace or remove any tab part or add personal notes – all changes will be seen only by you.

Personal tabs can be accessed anytime from any device, even offline.
Learn more »
Give kudos to tab author, rate the tab!
1 2 3 4 5
comments
print report bad tab
guest
You may want to rate the tab now too:
select rating
Wanna post a correction for this tab? Suggest correction