Oops, an error
Loading. Please wait.

Kill The Director bass

version 2
version 2

Whole song

Interactive

9,451 views 3 this week
4 commentsread comments
1 2 3 4 5
x 5
add to favorites
×
Save as Personal and add changes to this tab that will be seen only by you. Learn more ›
×
You can save this tab as Personal to edit and correct it or add notes. All changes will be seen only by you. Learn more »
launch autoscroll
font size
0
reset
guitar tuner
edit
Autoscroll
slow
fast
+/-
esc
set tempo
stop
Author
Difficulty
----------------------------------------------------------------------------
			     SONG NAME - Band Name
----------------------------------------------------------------------------

Tabbed By : Steve Healy
e-mail: steeeeeve13@hotmail.com

Tuning: EADG Standard

Bass doesnt come in until 00:18 "ive met someone who..."
G|-------------------------------------------------------------------------|
D|----------9----8-------------9----8----4-6-6--4-6-6--4-6-6--4-6-6--6-9-9-|
A|--------------------7----------------------------------------------------|
E|-0-----------------------------------------------------------------------|

G|-----------------------11-11---------------------------------------------|
D|-9-11-11--11-13-13--13--------4-6-6--4-6-6--4-6-6--4-6-6--6-9-9--9-11-11-|
A|-------------------------------------------------------------------------|
E|-------------------------------------------------------------------------|

G|-------------11----------------------------------------------------------|
D|-11--13--13--------------------------------------------------------------|
A|-------------------------------------------------------------------------|
E|-------------------------------------------------------------------------|

Chorus
G|-------------------------------------------------------------------------|
D|-------------------------------------------------------------------------|
A|-7-7-7-7-7-7-7-7-6-6-6-6-6-6-6-6-----------------9-9-9-9-9-9-9-9---------|
E|---------------------------------7-7-7-7-7-7-7-7-------------------------|

G|-------------------------------------------------------------------------|
D|-6-6-6-6-6-6-6-6-9-9-9-9-11-11-11-11-------------------------------------|
A|-----------------------------------------------------9-9-9-9-9-9-9-9-----|
E|-------------------------------------7-7-7-7-7-7-7-7-----------------0--0|

Bass kicks in again at 1:09 "so in the angst..."
G|-----------------------------------------------------------------11-11-11|
D|-4-6-6-6-4-6-6-6-4-6-6-6-4-6-6-6-9-9-9-9-11-11-11-11-13-13-13-13---------|
A|-------------------------------------------------------------------------|
E|-------------------------------------------------------------------------|

G|11-----------------------------------------------------------------------|
D|---6-6---6-6---6-6---6-6-------------------------------------------------|
A|-------------------------------------------------------------------------|
E|-------------------------------------------------------------------------|

2nd Chorus, plays exactly the same as 1st chorus but is 3 bars not 2 (repeat the 1st bar 
it comes to the 3rd)

Outro "this is no bridget jones"
G|-------------------------------------------------------------------------|
D|---------------------------------6-6-6-6-6-6-6-6-7-7-7-7-7-7-7-7---------|
A|-7-7-7-7-7-7-7-7-6-6-6-6-6-6-6-6-----------------------------------------|
E|-------------------------------------------------------------------------|

Repeat until the end! Finish on E


| /  slide up
| \  slide down
| h  hammer-on
| p  pull-off
| ~  vibrato
| +  harmonic
| x  Mute note
===============================================================================

            
            
Suggest correction
Creating personal tab
Creating personal tab
You can edit any tab online and save it as your Personal.

You can edit, replace or remove any tab part or add personal notes – all changes will be seen only by you.

Personal tabs can be accessed anytime from any device, even offline.
Learn more »
comments
print report bad tab
4 comments total. Showing first comments.
0 reply
The Trendy Don 10 Nov 14, 2007 06:52 AM

The Best Tab, On This Site, Pretty Accurate, Better Than Following Root Notes


CHEERS MAN

0 reply
--Alex-- 10 Nov 14, 2007 12:18 PM

wrong

+1 reply
winchy32 10 Dec 02, 2007 07:59 AM

this is missing a vital part!!!the bass comes in a long way before "i've met someone who..." it is playing chords in the
intro, there is no second guitar, go on youtube and see what i mean!

guest
You may want to rate the tab now too:
select rating
Wanna post a correction for this tab? Suggest correction