Oops, an error
Loading. Please wait.

Kill The Director bass

version 3
version 3

Whole song

Interactive

18,881 views 12 this week
3 commentsread comments
1 2 3 4 5
x 9
add to favorites
×
Save as Personal and add changes to this tab that will be seen only by you. Learn more ›
×
You can save this tab as Personal to edit and correct it or add notes. All changes will be seen only by you. Learn more »
launch autoscroll
font size
0
reset
guitar tuner
edit
Autoscroll
slow
fast
+/-
esc
set tempo
stop
Author
Difficulty
Kill the director bass tab tabbed by ange stella
aka
indie_lover

This is the correct version of this amazing  song
Play on count 2 and 4

intro
G
D--9-9--6-6--9-9--8-8--9-9--6-6--8-8--6-6
A   x2
E

Verse1
|--------------------------------------------------------------------------|
D|----------9----8-------------9----8----4-6-6--4-6-6--4-6-6--4-6-6--6-9-9-|
A|--------------------7----------------------------------------------------|
E|-0-----------------------------------------------------------------------|

G|-----------------------11-11---------------------------------------------|
D|-9-11-11--11-13-13--13--------4-6-6--4-6-6--4-6-6--4-6-6--6-9-9--9-11-11-|
A|-------------------------------------------------------------------------|
E|-------------------------------------------------------------------------|

G|-------------11----------------------------------------------------------|
D|-11--13--13--------------------------------------------------------------|
A|-------------------------------------------------------------------------|
E|-------------------------------------------------------------------------|

Chorus
G|-------------------------------------------------------------------------|
D|-------------------------------------------------------------------------|
A|-7-7-7-7-7-7-7-7-6-6-6-6-6-6-6-6-----------------9-9-9-9-9-9-9-9---------|
E----------------------------------7-7-7-7-7-7-7-7-------------------------|

G---------------------------------------------------------------------------|
D---------------9-9-9-9-11-11-11-11-----------------------------------------|
A7-7-7-7-7-7-7-7----------------------------------9-9-9-9-9-9-9-7-7-7-7-7-7-|
E----------------------------------7-7-7-7-7-7-7-7--------------------------|
Verse 2
bass doesnt come in until
With thew angst of a teenage band…
G|-----------------------------------------------------------------11-11-11|
D|-6-6-6-6-6-6-6-6-6-6-6-6-6-6-6-6-9-9-9-9-11-11-11-11-13-13-13-13---------|
A|-------------------------------------------------------------------------|
E|-------------------------------------------------------------------------|

G|11-----------------------------------------------------------------------|
D|---6-6---6-6---6-6---6-6-------------------------------------------------|
A|-------------------------------------------------------------------------|
E|-------------------------------------------------------------------------|

the slow "Heres another song…" before chorus 2..
G-------|11
D-9-----|
A---
E---

Chorus 2
Chorus
G|---------------------------------------------------------------------------|
D|---------------------------------------------------------------------------|
A|-7-7-7-7-7-7-7-7-6-6-6-6-6-6-6-6---------------9-9-9-9-9-9-9-9-------------|
E---------------------------------7-7-7-7-7-7-7-7----------------------------|

G------------------------------------------------------------------------|
D---------------9-9-9-9-11-11-11-11--------------------------------------|
A7-7-7-7-7-7-7-7----------------------------------9-9-9-9-9-9-9----------|
E----------------------------------7-7-7-7-7-7-7-7-----------------------|


G|---------------------------------------------------------------------------|
D|---------------------------------------------------------------------------|
A|-7-7-7-7-7-7-7-7-6-6-6-6-6-6-6-6---------------9-9-9-9-9-9-9-9-------------|
E---------------------------------7-7-7-7-7-7-7-7----------------------------|

Please______
G-------------------------|
D---------------------9---|
A7---7---7---7---7—7------|
E-------------------------|

Outro

This is no bridget jones
G-----------------------------------------------|
D-----------------------------------------------|
A7-7-7-7-6-6-6-6s-11-11-11-11-12-12-12-12-------|
E-----------------------------------------------|

s=slide
End on  E
Suggest correction
Creating personal tab
Creating personal tab
You can edit any tab online and save it as your Personal.

You can edit, replace or remove any tab part or add personal notes – all changes will be seen only by you.

Personal tabs can be accessed anytime from any device, even offline.
Learn more »
comments
print report bad tab
3 comments total.
0 reply
chrisjenks 2,712 Jul 29, 2008 12:33 AM

good job!

0 reply
jamesyellow 21 Jul 13, 2009 04:27 PM

VERY NICE!, except you didnt do the power chords at the start before the vocals

0 reply
AlexD97 579 Aug 07, 2010 02:42 AM

s means legato slide, doesn't it?

guest
You may want to rate the tab now too:
select rating
Wanna post a correction for this tab? Suggest correction