Oops, an error
Loading. Please wait.

Lets Dance To Joy Division tab

version 2
version 2

Whole song

Interactive

7,318 views 3 this week
4 commentsread comments
1 2 3 4 5
x 5
add to favorites
×
Save as Personal and add changes to this tab that will be seen only by you. Learn more ›
×
You can save this tab as Personal to edit and correct it or add notes. All changes will be seen only by you. Learn more »
launch autoscroll
font size
0
reset
how to read this tab
guitar tuner
edit
Autoscroll
slow
fast
+/-
esc
set tempo
stop
Author
standard tuning

intro/first part of the verse is clean, the rest you decide


intro

e|--------------x-x-x-x-x-x-----------------x--x--x-----------------------|
B|--------------x-x-x-x-x-x-----------------x--x--x-----------------------|
G|--------------x-x-x-x-x-x-----------------x--x--x-----------------------|
D|----9----9----9-9-9-9-9-9/----13----13----13-13-13---9---7----7---------|
A|--------------x-x-x-x-x-x-----------------x--x--x-----------------------|
E|--7----7---7--7-7-7-7-7-7/-11----11----11-11-11-11-7---5----5---5-------|

e|-x-x-x-x-x-x-----------------x--x--x--x--x--x---------------------------|
B|-x-x-x-x-x-x-----------------x--x--x--x--x--x---------------------------|
G|-x-x-x-x-x-x-----------------x--x--x--x--x--x---------------------------|
D|-7-7-7-7-7-7/----14----14----14-14-14-14-14-14--------------------------|
A|-x-x-x-x-x-x-----------------x--x--x--x--x--x---------------------------|
E|-5-5-5-5-5-5/-12----12----12-12-12-12-12-12-12--------------------------|

e|--------------x-x-x-x-x-x-----------------x--x--x-----------------------|
B|--------------x-x-x-x-x-x-----------------x--x--x-----------------------|
G|--------------x-x-x-x-x-x-----------------x--x--x-----------------------|
D|----9----9----9-9-9-9-9-9/----13----13----13-13-13---9---7----7---------|
A|--------------x-x-x-x-x-x-----------------x--x--x-----------------------|
E|--7----7---7--7-7-7-7-7-7/-11----11----11-11-11-11-7---5----5---5-------|

e|-x-x-x-x-x-x-----------------x--x--x--x--x--x---------------------------|
B|-x-x-x-x-x-x-----------------x--x--x--x--x--x---------------------------|
G|-x-x-x-x-x-x-----------------x--x--x--x--x--x---------------------------|
D|-7-7-7-7-7-7/----14----14----16-16-16-18-18-18--------------------------|
A|-x-x-x-x-x-x-----------------x--x--x--x--x--x---------------------------|
E|-5-5-5-5-5-5/-12----12----14-14-14-14-16-16-16--------------------------|


for the first part of the verse use the first part of the intro, the second part of the 
and the chorus is-

B5
D5
A5
C#5


i think thats about it but im working from the cut down version on there myspace so if 
is any solo or bridge then sorry, i aint heard it, when i get a full version i will try 
update any missed parts. any questions or critasism just post in the comments and ill get back to you
Suggest correction
Creating personal tab
Creating personal tab
You can edit any tab online and save it as your Personal.

You can edit, replace or remove any tab part or add personal notes – all changes will be seen only by you.

Personal tabs can be accessed anytime from any device, even offline.
Learn more »
comments
print report bad tab
4 comments total. Showing first comments.
0 reply
mansell863 484 Oct 07, 2007 02:21 PM

nice job man =]

0 reply
q.o.t.s.a.kid 10 Oct 28, 2007 09:43 AM

good tab! =] ***** 5 star

0 reply
r4nk1n 121 Oct 30, 2007 04:13 AM

good so far. you are missin a little solo though!

guest
You may want to rate the tab now too:
select rating
Wanna post a correction for this tab? Suggest correction