Oops, an error
Loading. Please wait.

Lets Dance To Joy Division Acoustic ukulele

version 2
version 2

Whole song

Interactive

975 views 9 this week
no commentswrite comment
1 2 3 4 5
3 more votes to show rating
add to favorites
×
Save as Personal and add changes to this tab that will be seen only by you. Learn more ›
×
You can save this tab as Personal to edit and correct it or add notes. All changes will be seen only by you. Learn more »
launch autoscroll
font size
0
reset
transpose
0
reset
display chords
guitar tuner
edit
Autoscroll
slow
fast
+/-
esc
set tempo
stop
Strumming
There is no strumming pattern for this song yet. and get +5 IQ
-----------------------------------------------------------------------------
Lets dance to Joy Division x the Wombats
-----------------------------------------------------------------------------
Tabbed by: whatsernamex

Tuning: Standard.

While i was watching an acoustic session of this song, i saw Matthew playing something 
a C-chord and well.. i think it sounds pretty cool the way i figured it out :]
You can use a capo if you want to, the wombats didnt use one though..

Intro:

e|------------(1)-(3)-------------------------------------------------------|
B|--------3----1---1--------------------------------------------------------|
G|---4----4----2---0--------------------------------------------------------|
D|---5----4----3---2--------------------------------------------------------|
A|---5---2---3----3---------------------------------------------------------|
E|--3-----------------------------------------------------------------------|

Verses:
e|-------------(1)—-(3)-----------------------------------------------------|
B|---------3----1----1------------------------------------------------------|
G|----4----4----2----0------------------------------------------------------|
D|----5----4----3----2------------------------------------------------------|
A|----5----2----3----3------------------------------------------------------|
E|----3---------------------------------------------------------------------|

Chorus and bridge:
e|-----------1--------------------------------------------------------------|
B|-------3---1----5---------------------------------------------------------|
G|---4---4---2----5---------------------------------------------------------|
D|---5---4---3----5---------------------------------------------------------|
A|---5---2---3----3---------------------------------------------------------|
E|---3-------1--------------------------------------------------------------|


Ta-daaah.


| /  slide up
| \  slide down
| h  hammer-on
| p  pull-off
| ~  vibrato
| +  harmonic
| x  Mute note
=============================================================================

            
            
Suggest correction
Creating personal tab
Creating personal tab
You can edit any tab online and save it as your Personal.

You can edit, replace or remove any tab part or add personal notes – all changes will be seen only by you.

Personal tabs can be accessed anytime from any device, even offline.
Learn more »
Give kudos to tab author, rate the tab!
1 2 3 4 5
comments
print report bad tab
guest
Wanna post a correction for this tab? Suggest correction