Oops, an error
Loading. Please wait.

Little Miss Pipedream bass

version 1
version 1

Whole song

1,760 views 1 this week
1 commentread comment
1 2 3 4 5
1 last vote to show rating
add to favorites
×
Save as Personal and add changes to this tab that will be seen only by you. Learn more ›
×
You can save this tab as Personal to edit and correct it or add notes. All changes will be seen only by you. Learn more »
launch autoscroll
font size
0
reset
guitar tuner
edit
Autoscroll
slow
fast
+/-
esc
set tempo
stop
Author
-------------------------------------------------------------------------------
			     The Wombats- Little Miss Pipedream
-------------------------------------------------------------------------------

Tabbed By : Bryn Portas a.k.a Stud_Muffin
e-mail: portasn@aol.co.uk

Tuning: Standard EADG

This is a really good song, by one of the best modern indie bands out there at the moment.
The Wombats bassist uses a pick, so to recreate his tone, it sounds better with one
I’m not a huge fan of picks).
It’s really easy to play and sing, if you’re with a good drummer,
who can keep the timing well, as the majority of the song is just bass and drums.
I’ve included lyrics to make it easier. Happy learning!

PS: This song is very repetetive, but the few small changes that are made are
quite hard to pick out, so this tab may not be 100% accurate. Its
all the right chords though.

Drum Intro (kick, hat, kick, hat, kick, hat, hat, hat). Then bass enters:

G|---------------------------------|
D|-2-2-2-2-2-2-2-2-2-2-2-2-2-2-2-2-|
A|---------------------------------|
E|0-0-0-0-0-0-0-0-0-0-0-0-0-0-0-0--|

Verses

1. I think the postman intercepts everything I try and send to you
2. She works in a dental practice 9 til 5, how does she manage?
3. I saw her slam back tequila's like Oliver Reed on an Irish stag do

G|---------------------------------2-2-2-2-2-2-2-2-2-2-2-2-2-2-2-2-|
D|-2-2-2-2-2-2-2-2-2-2-2-2-2-2-2-2---------------------------------|
A|--------------------------------0-0-0-0-0-0-0-0-0-0-0-0-0-0-0-0--|
E|0-0-0-0-0-0-0-0-0-0-0-0-0-0-0-0----------------------------------|

1.'Cos he's infatuated and he's the fulcrum between us two
2. Considering her nights don’t pass out til 3
3. And I'll wait if you stay because foggy London town's not built for me or you

G|---------------------------------2-2-2-2-2-2-2-2-2-2-2-2-2-2-2-2-|
D|-2-2-2-2-2-2-2-2-2-2-2-2-2-2-2-2---------------------------------|
A|--------------------------------0-0-0-0-0-0-0-0-0-0-0-0-0-0-0-0--|
E|0-0-0-0-0-0-0-0-0-0-0-0-0-0-0-0----------------------------------|

1.And i can't say i blame him 'cos i'd cheat a priest just to get to you
2. So I guess that flossing is the last thing in her health routine
3. Don't leave Miss Pipedream 'cos i love you!

G|---------------------------------------------|
D|-9-9-9-9-7-7-7-7-----------------------------|
A|---------------------------------------------|
E|7-7-7-7-5-5-5-5-5-5--(stop)------------------|

Bridge

Do doo do di do doo do/ Ooooooh!(Variations)

G|---------------------------------2-2-2-2-2-2-2-2-2-2-2-2-2-2-2-2-|
D|-2-2-2-2-2-2-2-2-2-2-2-2-2-2-2-2---------------------------------|
A|--------------------------------0-0-0-0-0-0-0-0-0-0-0-0-0-0-0-0--|
E|0-0-0-0-0-0-0-0-0-0-0-0-0-0-0-0----------------------------------|


Choruses

1. And I don't mind that she gets hammered and goes home with other guys
2. And I don't mind that she gets hammered and goes home with other guys

G|-----------------|
D|-7-7-7-7-9-9-9-9-|
A|-----------------|
E|5-5-5-5-7-7-7-7--|

1. There's no jealousy 'cos she's little pipedream fantasy (chorus 1 ends here)
2. There's no jealousy though she'll grind it out with friends but not with me

G|-----------------|
D|-7-7-7-7-9-9-9-9-|
A|-----------------|
E|5-5-5-5-7-7-7-7--|

2. She's my little miss pipedream fantasy
G|-----------------|
D|-7-7-7-7-9-9-9-9-|
A|-----------------|
E|5-5-5-5-7-7-7-7--|

Structure

Drum Intro (no bass)
Intro
Verse 1
Bridge
Verse 2
Bridge
Chorus 1
Verse 3
Bridge
Chorus 2
Bridge (End on open E)

So it's basically two chords throughout the whole song, picking the octaves of E and A, with a
little bit of variation. Told you it was easy! Any questions, you know the address.
Peace Out,
X

            
            
Suggest correction
Creating personal tab
Creating personal tab
You can edit any tab online and save it as your Personal.

You can edit, replace or remove any tab part or add personal notes – all changes will be seen only by you.

Personal tabs can be accessed anytime from any device, even offline.
Learn more »
Give kudos to tab author, rate the tab!
1 2 3 4 5
comments
print report bad tab
1 comment total.
0 reply
pmorote77 10 Jul 08, 2014 11:11 AM

didn't like this contribution

guest
You may want to rate the tab now too:
select rating
Wanna post a correction for this tab? Suggest correction