Oops, an error
Loading. Please wait.

Moving To New York tab

version 1
version 1

Whole song

Interactive

152,389 views 84 this week
14 commentsread comments
1 2 3 4 5
x 48
add to favorites
×
Save as Personal and add changes to this tab that will be seen only by you. Learn more ›
×
You can save this tab as Personal to edit and correct it or add notes. All changes will be seen only by you. Learn more »
launch autoscroll
font size
0
reset
how to read this tab
guitar tuner
edit
Autoscroll
slow
fast
+/-
esc
set tempo
stop
Author
Moving To New York:


[Intro]

e|----------------------------------------------------------|
B|-13-13-13-13----------------------------12-12-12-12----*4-|
G|-10-10-10-10--12-12-12-12--12-12-12-12--12-12-12-12-------|
D|-12-12-12-12--10-10-10-10--10-10-10-10--12-12-12-12-------|
A|--------------12-12-12-12--12-12-12-12--10-10-10-10-------|
E|----------------------------------------------------------|


[Verse]

1st Half: Nothing

e|-5--------12----------------15--------------------------------------|
B|-6--------13--------13------15--------------------------------------|
G|-7--------14--------14------12--------------------------------------|
D|--------------------------------------------------------------------|
A|--------------------------------------------------------------------|
E|--------------------------------------------------------------------|


e|----5---5------12------12------12--------------15-------------------|
B|---6-6-6-6---13--13--13--13--13--13--------------------15----13-----|
G|-/7---7---/14------14------14------14-14-13-12---12-12----12--------|
D|--------------------------------------------------------------------|
A|--------------------------------------------------------------------|
E|--------------------------------------------------------------------|


[Chorus]

e|------------------------------------------------------------------|
B|-13-13-13-13----------------------------12-12-12-12----*4--10-----|
G|-10-10-10-10--12-12-12-12--12-12-12-12--12-12-12-12--------10-----|
D|-12-12-12-12--10-10-10-10--10-10-10-10--12-12-12-12--------10-----|
A|--------------12-12-12-12--12-12-12-12--10-10-10-10--------8------|
E|------------------------------------------------------------------|


[Verse]
(pretty much same as before)

[Chorus]
(same again)

[Break]

e|----5---5------12------12------12--------------15-------------------|
B|---6-6-6-6---13--13--13--13--13--13--------------------15----13-----|
G|-/7---7---/14------14------14------14-14-13-12---12-12----12--------|
D|--------------------------------------------------------------------|
A|--------------------------------------------------------------------|
E|--------------------------------------------------------------------|

Dm Dm Dm Dm
Am Am Am Am
Am Am Am Am
G G G G


[Chorus] 
(same again)

End: FFFFFFFFFFFFFF GG FFFFFFFF GG-F#-F



http://www.thewombats.co.uk/
www.myspace.com/thewombatsuk

rate and comment please.


************************************

| /  Slide up

************************************

            
            
Suggest correction
Creating personal tab
Creating personal tab
You can edit any tab online and save it as your Personal.

You can edit, replace or remove any tab part or add personal notes – all changes will be seen only by you.

Personal tabs can be accessed anytime from any device, even offline.
Learn more »
comments
print report bad tab
14 comments total. Showing first comments.
+9 reply
andehstewart 235 May 12, 2007 10:26 AM

dont mind you putting it on here but it'd be nice if you could acknowledge me rather than passing it off as your own
x

0 reply
CrazyYaz 725 Sep 05, 2007 11:20 AM

whoevers it is, its a great tab.

0 reply
Captain Planet 300 Jan 08, 2008 06:36 AM

the 2nd and 3rd chords in the intro sound different, I can't see how this tab is right, but I will reserve judgement
until I have tried it myself.

guest
You may want to rate the tab now too:
select rating
Wanna post a correction for this tab? Suggest correction