Oops, an error
Loading. Please wait.

My Circuitboard City bass

version 1
version 1

Whole song

Interactive

1,022 views 1 this week
no commentswrite comment
1 2 3 4 5
2 more votes to show rating
add to favorites
×
Save as Personal and add changes to this tab that will be seen only by you. Learn more ›
×
You can save this tab as Personal to edit and correct it or add notes. All changes will be seen only by you. Learn more »
launch autoscroll
font size
0
reset
guitar tuner
edit
Autoscroll
slow
fast
+/-
esc
set tempo
stop
Author
-----------------------------------------------------------------------------
			     My Circuitboard City - The Wombats
-----------------------------------------------------------------------------

Tabbed By : erob5206

Intro (about 0:13)
G|-13-13-11-----------13-13-11----16-16-|
D|----------13-----------------13-------|
A|-------------11-11--------------------| x2
E|--------------------------------------|

"Welcome to my circuitboard city..." (0:33)
G|------------------------------|
D|------------------------------|
A|-7-7-7-------9-11-11-11-------|
E|-------7-7-7------------7-7-7-|

G|--------------------------------|
D|--------------------------------|
A|-6-7-7-7-------9-11-11-11-------| x2
E|--------7-7-7-------------7-7-7-|

G|-------------------------------------|
D|--------------------------9-11-9-----|
A|-6-7-7-7-------9-11-11-11--------11\-|
E|---------7-7-7-----------------------|

"Have a dance, Have a drink..." (0:45)
G|--------------------------------------------------------------|
D|--------------------------------------------------------------|
A|-----------------------9------------------------9-8-777777789-|
E|-4--3-4-5-7--6-7-8-9-9------4--3-4-5-7-7-7-8-9-9--------------|

"Let's ruin everything tonight..." (1:01)
G|-13-13-11-----------13-13-11----16-16-|
D|----------13-----------------13-------|
A|-------------11-11--------------------| x2
E|--------------------------------------|

"I got a note, I got a note, From my doctor..." (1:08)
G|------------------------------|
D|------------------------------|
A|-7-7-7-------9-11-11-11-------|
E|-------7-7-7------------7-7-7-|

G|--------------------------------|
D|--------------------------------|
A|-6-7-7-7-------9-11-11-11-------| x2
E|--------7-7-7-------------7-7-7-|

G|-------------------------------------|
D|--------------------------9-11-9-----|
A|-6-7-7-7-------9-11-11-11--------11\-|
E|---------7-7-7-----------------------|


"I'll throw a spanner in the works, I want more chaos to this order" 
(2nd time this is said, 1:20)
G|----------------|
D|----------------|
A|-7---------9999-|
E|----11--9-------|

"Have a dance, Have a drink..." (1:27)
G|----------------------------------------------------|
D|-------------------------------6-4------------------|
A|-----------------------9-----------6------------9-8-|
E|-4--3-4-5-7--6-7-8-9-9------4--------7-7-7-8-9-9----|

G|----------------------------------|
D|----------------------------------|
A|-------------------------99998888-|
E|-444443457777767899999999---------|

G|------------------------------------------------|
D|------------------------------------------------|
A|-------------------------999988887777777899999--|
E|-444443457777767899999999-----------------------|


"I can't wait to wallow in self pity in my circuitboard city tonight..." (1:56)
G|-------------------------|
D|-------------------------|
A|-6-777-----9-111111------| (Til 2:33)
E|------7-77----------7-77-|

End (2:39)
G|---------------|
D|-------9-11----|
A|-11-11------11-|
E|---------------|

            
            
Suggest correction
Creating personal tab
Creating personal tab
You can edit any tab online and save it as your Personal.

You can edit, replace or remove any tab part or add personal notes – all changes will be seen only by you.

Personal tabs can be accessed anytime from any device, even offline.
Learn more »
Give kudos to tab author, rate the tab!
1 2 3 4 5
comments
print report bad tab
guest
You may want to rate the tab now too:
select rating
Wanna post a correction for this tab? Suggest correction