Oops, an error
Loading. Please wait.

My Circuitboard City tab

version 1
version 1

Whole song

Interactive

7,529 views 9 this week
no commentswrite comment
1 2 3 4 5
x 6
add to favorites
×
Save as Personal and add changes to this tab that will be seen only by you. Learn more ›
×
You can save this tab as Personal to edit and correct it or add notes. All changes will be seen only by you. Learn more »
launch autoscroll
font size
0
reset
how to read this tab
guitar tuner
edit
Autoscroll
slow
fast
+/-
esc
set tempo
stop
Author
My Circuit Board City
Tabbed by joetp_10@msn.com
Its a hard song to tab, because its a lot of repetition. Should give you an idea 
about how to play it.

Intro
Riff 1
E|-----------------|
B|-----------------|
G|-----------------|
D|----------9--11--|
A|--11--11---------|
E|-----------------|      x2

E|---------|
B|---------|
G|--11--8--|
D|---------|
A|---------|
E|---------|

Riff 1 once more

Sequence 2
E|--11-------7----------9---|
B|--12-------7----------10--|
G|--13-------8----------11--|
D|--13-------9----------11--|
A|--11-------9----------9---|
E|--11-------7--------------|  Repeat: Keep playing for the 2nd part of the intro and verses.

Verse
Sequence 2

Bridge
E|---------------------|
B|---------------------|
G|--13---------11------|
D|--13--9--11--11------|
A|--11--9--11--9-------|
E|------7--9-----------|x2

E|---------|
B|---------|
G|--9--11--|
D|--9--11--|
A|--7--9---|
E|---------|
Verse 2
Sequence 2
Lat part of verse 2:
E|------------------|
B|------------------|
G|--13-----9--------|
D|--13--9--9----11--|
A|--11--9--7----11--|
E|------7-------9---|

1st part of bridge played over and over

Chorus
Sequence 1 with the first part of Riff 1 played inbetween.

Grandad George said the heroes are the ones that run away,
But I wear no medals I'm sprawled in a toilet on my birthday,
Welcome to my circuitboard city of yellow and black,
We all score WD40 so our hearts dont crack,
I must admit I need a speedbump,
To slow down my higher brain.

Have a dance,
Have a drink,
Suppress it back ruin everything,
Have a dance,
Have a drink,
Suppress it back ruin everything tonight,
Lets ruin everything tonight.

Ive got a note,
Ive got a note, from my doctor,
So please release me from your rat-race melodrama,
Ill throw a spanner in the works,
I want more chaos of this order,
Ill throw a spanner in the works,
I want more chaos of this order,

Have a dance,
Have a drink,
Suppress it back, ruin everything
Have a dance,
Have a drink
Suppress it back, ruin everything
Have a dance,
Have a drink
Suppress it back, ruin everything
Have a dance,
Have a drink,
Suppress it back, ruin everything tonight


Can’t wait to wallow in self pity
In my circuit board city tonight
I can’t wait to wallow in self pity
In my circuit board city tonight
I can’t wait to wallow in self pity
In my circuit board city tonight
I can’t wait to wallow in self pity
In my circuit board city tonight

            
            
Suggest correction
Creating personal tab
Creating personal tab
You can edit any tab online and save it as your Personal.

You can edit, replace or remove any tab part or add personal notes – all changes will be seen only by you.

Personal tabs can be accessed anytime from any device, even offline.
Learn more »
comments
print report bad tab
guest
You may want to rate the tab now too:
select rating
Wanna post a correction for this tab? Suggest correction