Oops, an error
Loading. Please wait.

Bout To Get Fruit Punched Homie Tab

5,594 views 3 this week
5 commentsread comments
1 2 3 4 5
excellent!
x 7
add to favorites
launch autoscroll
font size
0
reset
how to read this tab
guitar tuner
Tab Pro tools
  • play this tab
  • loop segment
  • change instrument
  • show fretboard
  • metronome
×
Best way to learn
"Bout To Get Fruit Punched Homie"
Autoscroll
slow
fast
+/-
esc
set tempo
stop
Contributor
Difficulty
Tuning
intermediate
C# G# C# F# A# D#
------------------------------------------------------------------------------
           'Bout to Get Fruit Punched, Homie - The Wonder Years
-------------------------------------------------------------------------------
Tabbed by: JjjDdd
Email: jxsxphdxxgxn@gmail.com

Tuning: Drop C#

 /   slide up
 \   slide down
 *   palm mute
 h   hammer-on
 p   pull-off
 ~   vibrato
 +   harmonic
 x   mute note

	
`intro
D#|-------------------------------------|
A#|-------------------------------------|
F#|-------------------------------------|
C#|-12\-0h2-2--0h9-9-9--4h5-5--0-7--0-7-|
G#|-12\-0h2-2--0h9-9-9--4h5-5--0-7--0-7-|
C#|-12\-0h2-2--0h9-9-9--4h5-5--0-7--0-7-|


D#|-----------------------------------|
A#|-----------------------------------|
F#|-----------------------------------|
C#|--0h2-2--0h9-9-9--4h5-5--0-7--0-7--| x3
G#|--0h2-2--0h9-9-9--4h5-5--0-7--0-7--|
C#|--0h2-2--0h9-9-9--4h5-5--0-7--0-7--|

D#|----------------------------------------|
A#|----------------------------------------|
F#|----------------------------------------|
C#|--0~---0-7--0-7---0~--------[pickslide]-|
G#|--0~---0-7--0-7---0~--------[pickslide]-|
C#|--0~---0-7--0-7---0~--------[pickslide]-|

	Verse 
D#|-----------------------------------------|
A#|-----------------------------------------|
F#|-----------------------------------------|
C#|--0-0--0h9-9-9-7-7-7-7--2-2-2--4-5-5-5-5-| x2
G#|--0-0--0h9-9-9-7-7-7-7--2-2-2--4-5-5-5-5-|
C#|--0-0--0h9-9-9-7-7-7-7--2-2-2--4-5-5-5-5-|

                                                   THEN JUICE WILL SPILL
D#|---------------------------------------------|    |--+7-------|
A#|---------------------------------------------|    |-----+7----|
F#|---------------------------------------------|    |--------+7-|
C#|-0-0--0-9-7-7--7-7--7-7--2-2-2--4-4-5-5--5-5-| x2 |-----------|
G#|-0-0--0-9-7-7--7-7--7-7--2-2-2--4-4-5-5--5-5-|    |-----------|
C#|-0-0--0-9-7-7--7-7--7-7--2-2-2--4-4-5-5--5-5-|    |-----------|   
    * *  * * * *  * *  * *  * * *  * * * *  * *     

D#|------------------------------------------------------|
A#|------------------------------------------------------|
F#|------------------------------------------------------|
C#|-0-0-0-0-0~----2-2-2-2-2~----5-5-5-5-5~----7-7-7-7-7~-| x2
G#|-0-0-0-0-0~----2-2-2-2-2~----5-5-5-5-5~----7-7-7-7-7~-|
C#|-0-0-0-0-0~----2-2-2-2-2~----5-5-5-5-5~----7-7-7-7-7~-|
    * * * *       * * * *       * * * *       * * * * 

D#|--------------------------------|
A#|--------------------------------|
F#|--------------------------------|
C#|--9-9-xx--7-7--12\---2-2-2-4-5~-|
G#|--9-9-xx--7-7--12\---2-2-2-4-5~-|
C#|--9-9-xx--7-7--12\---2-2-2-4-5~-|


D#|------------------------------------------------------|
A#|------------------------------------------------------|
F#|------------------------------------------------------|
C#|-0-0-0-0-0--2-2-2-2-2--5-5-5-5-5---2--4--5---7777777--|
G#|-0-0-0-0-0--2-2-2-2-2--5-5-5-5-5---2--4--5---7777777--|
C#|-0-0-0-0-0--2-2-2-2-2--5-5-5-5-5---2--4--5---7777777--|
    * * * *    * * * *    * * * *

D#|-----------------------------------|
A#|-----------------------------------|
F#|-----------------------------------|
C#|--0h2-2--0h9-9-9--4h5-5--0-7--0-7--| x2
G#|--0h2-2--0h9-9-9--4h5-5--0-7--0-7--|
C#|--0h2-2--0h9-9-9--4h5-5--0-7--0-7--|


D#|---------------------------------------------------------|
A#|---------------------------------------------------------|
F#|---------------------------------------------------------|
C#|-0~------------------------0~---------------------7-7-7--|
G#|-0~------------------------0~---------------------7-7-7--|
C#|-0~------------------------0~---------------------7-7-7--|
 

D#|---------------------------------------------|    |----------------|
A#|---------------------------------------------|    |----------------|
F#|---------------------------------------------|    |----------------|
C#|-0-0--0-9-7-7--7-7--7-7--2-2-2--4-4-5-5--5-5-| x2 |----------------|
G#|-0-0--0-9-7-7--7-7--7-7--2-2-2--4-4-5-5--5-5-|    |-0-0--0--0-0-0--|
C#|-0-0--0-9-7-7--7-7--7-7--2-2-2--4-4-5-5--5-5-|    |-0-0--0--0-0-0--|   
    * *  * * * *  * *  * *  * * *  * * * *  * *        * *  *  * * * 

       breakdown
D#|-------------------------------------------------------|
A#|-------------------------------------------------------|
F#|-------------------------------------------------------|
C#|-------------------------------------------------------| x2
G#|-0-0--0--0-0-0-0--0--0-0-0---0-0--0---0-0-0----0-0-0-0-|
C#|-0-0--0--0-0-0-0--0--0-0-0---0-0--0---0-0-0----0-0-0-0-|
    * *  *  * * * *  *  * * *   * *  *   * * *    * * * *

                ILL DISCONNECT................THE CAPTAINS NECK
D#|--------------------------------------------------------------|
A#|--------------------------------------------------------------|
F#|--------------------------------------------------------------|
C#|--------------------------------------------------12\---------|
G#|-0-0--0--0-0-0--------------0-0--0--0-0-0---------12\---------|
C#|-0-0--0--0-0-0--------------0-0--0--0-0-0---------12\---------|
    * *  *  * * *              * *  *  * * *
               AND MAKE HIM WISH...............THAT HE WAS DEAD
D#|--------------------------------------------------------------|
A#|--------------------------------------------------------------|
F#|--------------------------------------------------------------|
C#|--------------------------------------------------------------|
G#|-0-0--0--0-0-0---------------0-0--0--0-0-0---------0-0-0-0----|
C#|-0-0--0--0-0-0---------------0-0--0--0-0-0---------0-0-0-0----|
    * *  *  * * *               * *  *  * * *         * * *

SMASH YA SKULL LIKE A CRUNCHBERRY, PUNK
D#|------------------|
A#|------------------|
F#|--12---------11---|
C#|-----x8--------x8-|
G#|--10---------9----|
C#|------------------|

 last chorus
D#|----------------------------------|
A#|----------------------------------|
F#|----------------------------------|
C#|-0-0-0-0-0--2-2-2-2-2--5-5-5-5-5-5| x2
G#|-0-0-0-0-0--2-2-2-2-2--5-5-5-5-5-5|
C#|-0-0-0-0-0--2-2-2-2-2--5-5-5-5-5-5|

D#|---------------------------------------|
A#|---------------------------------------|
F#|---------------------------------------|
C#|--9--9-9---7-7--7---5-5--5---7-7--7----|
G#|--9--9-9---7-7--7---5-5--5---7-7--7----|
C#|--9--9-9---7-7--7---5-5--5---7-7--7----|

                    so keep my name out of your mouth, son
D#|------------------------------------------------------------------------------|
A#|------------------------------------------------------------------------------|
F#|------------------------------------------------------------------------------|
C#|-9-9--9--7-7--7--5-5--2-2--5-5--2-2--5-5--2-2--5-5--2-2---0-0-0-0-0-0-0-0-0-0-|
G#|-9-9--9--7-7--7--5-5--2-2--5-5--2-2--5-5--2-2--5-5--2-2---0-0-0-0-0-0-0-0-0-0-|
C#|-9-9--9--7-7--7--5-5--2-2--5-5--2-2--5-5--2-2--5-5--2-2---0-0-0-0-0-0-0-0-0-0-|

such a rad song

********************************************************************
comments
print report bad tab
5 comments total. Showing first comments.
0 reply
lassise wrote on July 3 2011, 05:27 pm

sick thanks!!

0 reply
JjjDdd wrote on July 3 2011, 05:58 pm

no problem dude

0 reply
Roflpwn wrote on July 23 2011, 10:38 am

Im very sure the intro is played this way.

D#|-------------------------------------|
A#|-------------------------------------|
F#|-------------------------------------|
C#|-12\-0h2-2--0h9-9-9--0h5-5--5-7--5-7-|
G#|-12\-0h2-2--0h9-9-9--0h5-5--5-7--5-7-|
C#|-12\-0h2-2--0h9-9-9--0h5-5--5-7--5-7-|

I want to post or [tab]
guest
You may want to rate the tab now too:
select rating
Please do not post tabs as comments. Select "correction" instead!