Oops, an error
Loading. Please wait.

Came Out Swinging tab

version 1
version 1

Whole song

Interactive

38,052 views 48 this week
no commentswrite comment
1 2 3 4 5
x 12
add to favorites
×
Save as Personal and add changes to this tab that will be seen only by you. Learn more ›
×
You can save this tab as Personal to edit and correct it or add notes. All changes will be seen only by you. Learn more »
launch autoscroll
font size
0
reset
how to read this tab
guitar tuner
edit
Autoscroll
slow
fast
+/-
esc
set tempo
stop
Came Out Swinging
The Wonder Years
Suburbia I've Giving You All And Now I'm Nothing

C# G# C# F# A# D#

  [Intro]    My mind is made up, there’s going to be trouble
D#|----|---------|
A#|----|---------|
F#|-7*-|-7-------|
C#|----|--x-lots-|
G#|----|-5-------|
C#|----|---------|

[Verse]    Moved all my shit…
  GTR1
D#|-----------------------|
A#|-----------------------|
F#|-----------------------|
C#|-0----5----2----4-5----|
G#|-0-x8-5-x8-2-x7-4-5-x8-|
C#|-0----5----2----4-5----|

  GTR2 - Enters    I guess you’ll call…
D#|-----------------|
A#|-7---7---7---7---|
F#|---7---7---7---7-|
C#|-----------------|
G#|-----------------|
C#|-----------------|

  Then
  GTR1    I spent this whole year in Airports
D#|---------------------------------------------------------------------------------------|
A#|---------------------------------------------------------------------------------------|
F#|-11--9--7----11-12--9---11--9--7--9--11-6--9--11--9-7-9-7--11-12-9--11-9-7--9--11-6--9-|
C#|---------------------------------------------------------------------------------------|
G#|-9---7--5----9--10--7---9---7--5--7--9--4--7--9---7-5-7-5--9--10-7--9--7-5--7--9--4--7-|
C#|---------------------------------------------------------------------------------------|
        Work out the rhythm yourself

  GTR2
D#|---------------------|
A#|---------------------|
F#|---------------------|
C#|-2----5----0----7----|
G#|-2-x8-5-x8-0-x8-7-x8-| x3
C#|-2----5----0----7----|

[Pre Chorus]  
  GTR1     I’m running on empty
D#|-------------------------|
A#|-------------------------|
F#|-7~--7~--9~--7~--7~--14~-|
C#|-------------------------|
G#|-5~--5~--7~--5~--5~--12~-|
C#|-------------------------|

[Chorus]
  GTR1    I spent this year as a ghost
D#|---------------------------------|
A#|---------------------------------|
F#|-7----9---7----11---7---12-11--9-|
C#|---------------------------------|
G#|-5----7---5----9----5---10-9---7-|
C#|---------------------------------|
        Work out the rhythm yourself

  GTR2
D#|--------------------------|
A#|--------------------------|
F#|--------------------------|
C#|-5----0----5----0----7----|
G#|-5-x8-0-x8-5-x8-0-x8-7-x8-|
C#|-5----0----5----0----7----|

[Pre Verse]
  GTR1
D#|---------------------|
A#|---------------------|
F#|---------------------|
C#|-0----5----2----5----|
G#|-0-x8-5-x8-2-x8-5-x8-|
C#|-0----5----2----5----|

[Verse 2]    Been on a steady fast food diet
  GTR1 - enters    Defeat……My body
D#|--|-----------------------------------|
A#|--|-----------------------------------|
F#|--|-----------------------------------|
C#|--|----------5~-0----5----2----4-5----|
G#|--|-0-0-0-0--5~-0-x8-5-x8-2-x8-4-5-x8-|
C#|--|-0-0-0-0--5~-0----5----2----4-5----|

  GTR2 - enters    Defeat……My body
D#|--|-------------------------|
A#|--|-8-------8----8------8---|
F#|--|---9-11----9----9-7----9-|
C#|--|-------------------------|
G#|--|-------------------------|
C#|--|-------------------------|

[Pre Chorus 2]
  GTR1    Unrolled a cheap cotton blanket
D#|----------------------------------------------------------------------|
A#|----------------------------------------------------------------------|
F#|-7---14---7---9--11--6--9--11--9-7-9-7--11-12-9--11-9--7---11-6--9--7-|
C#|----------------------------------------------------------------------|
G#|-5---12---5---7--9---4--7--9---7-5-7-5--9--10-7--9--7--5---9--4--7--5-|
C#|----------------------------------------------------------------------|
        Work out the rhythm yourself

  GTR2
D#|---------------------|
A#|---------------------|
F#|---------------------|
C#|-2----5----0----7----|
G#|-2-x8-5-x8-0-x8-7-x8-| x3
C#|-2----5----0----7----|

[Chorus]
  GTR1    I spent this year as a ghost
D#|---------------------------------|
A#|---------------------------------|
F#|-7----9---7----11---7---12-11--9-|
C#|---------------------------------|
G#|-5----7---5----9----5---10-9---7-|
C#|---------------------------------|
        Work out the rhythm yourself

  GTR2
D#|--------------------------|
A#|--------------------------|
F#|--------------------------|
C#|-5----0----5----0----7----|
G#|-5-x8-0-x8-5-x8-0-x8-7-x8-|
C#|-5----0----5----0----7----|

[Bridge]
  GTR1
D#|----|-------------------------------------|
A#|----|-------------------------------------|
F#|-7~-|---4---------------------4-----------|
C#|----|-7---7-4-7--4-2-0-2-4--7---7-4-7--0~-|
G#|-5~-|-------------------------------------|
C#|----|-------------------------------------|

  GTR2 - Optional
D#|----------------|
A#|----------------|
F#|----------------|
C#|-0~--5~--2~--7~-|
G#|-0~--5~--2~--7~-|
C#|-0~--5~--2~--7~-|

[Piano break]
  Then
  GTR1     I CAME OUT SWINGING…
D#|---------------------|
A#|---------------------|
F#|-7----9---7--9--11-7-|
C#|---------------------|
G#|-5----7---5--7--9--5-|
C#|---------------------|

  GTR2
D#|---------------------|-----------------------------------|
A#|---------------------|-----------------------------------|
F#|---------------------|-----------------------------------|
C#|-0----5----9----7----|-0----5----9----7-----7--9--5---0~-|
G#|-0-x8-5-x8-9-x8-7-x8-|-0-x8-5-x8-9-x8-7-x8--7--9--5---0~-|
C#|-0----5----9----7----|-0----5----9----7-----7--9--5---0~-|

  GTR3 - enters
D#|------------------------------------|----|---------------|
A#|------------------------------------|----|---------------|
F#|---4---------------------4----------|----|-9--11-7~------|
C#|-7---7-4-7--4-2-0-2-4--7---7-4-7-0~-|----|------------0~-|
G#|------------------------------------|-x2-|-7--9--5~---0~-|
C#|------------------------------------|----|------------0~-|

************************************

| *  Natural harmonic
| x  Dead note
| ~  Vibrato

************************************

            
            
Suggest correction
Creating personal tab
Creating personal tab
You can edit any tab online and save it as your Personal.

You can edit, replace or remove any tab part or add personal notes – all changes will be seen only by you.

Personal tabs can be accessed anytime from any device, even offline.
Learn more »
comments
print report bad tab
guest
You may want to rate the tab now too:
select rating
Wanna post a correction for this tab? Suggest correction