Oops, an error
Loading. Please wait.

Came Out Swinging Tab

version 1
version 1

Whole song

Interactive

35,439 views 57 this week
no commentswrite comment
1 2 3 4 5
excellent!
x 10
add to favorites
launch autoscroll
font size
0
reset
how to read this tab
guitar tuner
Autoscroll
slow
fast
+/-
esc
set tempo
stop
Help us to improve Ultimate-Guitar.com Take our survey!
×
Author
Difficulty
Tuning
novice
C# G# C# F# A# D#
Came Out Swinging
The Wonder Years
Suburbia I've Giving You All And Now I'm Nothing

C#G#C#F#A#D#

Intro    My mind is made up, there’s going to be trouble
|----|---------|
|----|---------|
|-7*-|-7-------|
|----|--x-lots-|
|----|-5-------|
|----|---------|

Verse    Moved all my shit…
GTR1
|-----------------------|
|-----------------------|
|-----------------------|
|-0----5----2----4-5----|
|-0-x8-5-x8-2-x7-4-5-x8-|
|-0----5----2----4-5----|

GTR2 - Enters    I guess you’ll call…
|-----------------|
|-7---7---7---7---|
|---7---7---7---7-|
|-----------------|
|-----------------|
|-----------------|

Then
GTR1    I spent this whole year in Airports
|---------------------------------------------------------------------------------------|
|---------------------------------------------------------------------------------------|
|-11--9--7----11-12--9---11--9--7--9--11-6--9--11--9-7-9-7--11-12-9--11-9-7--9--11-6--9-|
|---------------------------------------------------------------------------------------|
|-9---7--5----9--10--7---9---7--5--7--9--4--7--9---7-5-7-5--9--10-7--9--7-5--7--9--4--7-|
|---------------------------------------------------------------------------------------|
	Work out the rhythm yourself
GTR2
|---------------------|
|---------------------|
|---------------------|
|-2----5----0----7----|
|-2-x8-5-x8-0-x8-7-x8-| x3
|-2----5----0----7----|

Pre Chorus    
GTR1     I’m running on empty
|-------------------------|
|-------------------------|
|-7~--7~--9~--7~--7~--14~-|
|-------------------------|
|-5~--5~--7~--5~--5~--12~-|
|-------------------------|

Chorus
GTR1    I spent this year as a ghost
|---------------------------------|
|---------------------------------|
|-7----9---7----11---7---12-11--9-|
|---------------------------------|
|-5----7---5----9----5---10-9---7-|
|---------------------------------|
	Work out the rhythm yourself
GTR2
|--------------------------|
|--------------------------|
|--------------------------|
|-5----0----5----0----7----|
|-5-x8-0-x8-5-x8-0-x8-7-x8-|
|-5----0----5----0----7----|

Pre Verse
GTR1
|---------------------|
|---------------------|
|---------------------|
|-0----5----2----5----|
|-0-x8-5-x8-2-x8-5-x8-|
|-0----5----2----5----|

Verse 2    Been on a steady fast food diet
GTR1 - enters    Defeat……My body
|--|-----------------------------------|
|--|-----------------------------------|
|--|-----------------------------------|
|--|----------5~-0----5----2----4-5----|
|--|-0-0-0-0--5~-0-x8-5-x8-2-x8-4-5-x8-|
|--|-0-0-0-0--5~-0----5----2----4-5----|

GTR2 - enters    Defeat……My body
|--|-------------------------|
|--|-8-------8----8------8---|
|--|---9-11----9----9-7----9-|
|--|-------------------------|
|--|-------------------------|
|--|-------------------------|

Pre Chorus 2
GTR1    Unrolled a cheap cotton blanket
|----------------------------------------------------------------------|
|----------------------------------------------------------------------|
|-7---14---7---9--11--6--9--11--9-7-9-7--11-12-9--11-9--7---11-6--9--7-|
|----------------------------------------------------------------------|
|-5---12---5---7--9---4--7--9---7-5-7-5--9--10-7--9--7--5---9--4--7--5-|
|----------------------------------------------------------------------|
	Work out the rhythm yourself
GTR2
|---------------------|
|---------------------|
|---------------------|
|-2----5----0----7----|
|-2-x8-5-x8-0-x8-7-x8-| x3
|-2----5----0----7----|


Chorus
GTR1    I spent this year as a ghost
|---------------------------------|
|---------------------------------|
|-7----9---7----11---7---12-11--9-|
|---------------------------------|
|-5----7---5----9----5---10-9---7-|
|---------------------------------|
	Work out the rhythm yourself
GTR2
|--------------------------|
|--------------------------|
|--------------------------|
|-5----0----5----0----7----|
|-5-x8-0-x8-5-x8-0-x8-7-x8-|
|-5----0----5----0----7----|

Bridge
GTR1
|----|-------------------------------------|
|----|-------------------------------------|
|-7~-|---4---------------------4-----------|
|----|-7---7-4-7--4-2-0-2-4--7---7-4-7--0~-|
|-5~-|-------------------------------------|
|----|-------------------------------------|

GTR2 - Optional
|----------------|
|----------------|
|----------------|
|-0~--5~--2~--7~-|
|-0~--5~--2~--7~-|
|-0~--5~--2~--7~-|

Piano break
Then
GTR1     I CAME OUT SWINGING…
|---------------------|
|---------------------|
|-7----9---7--9--11-7-|
|---------------------|
|-5----7---5--7--9--5-|
|---------------------|

GTR2
|---------------------|-----------------------------------|
|---------------------|-----------------------------------|
|---------------------|-----------------------------------|
|-0----5----9----7----|-0----5----9----7-----9--7--5---0~-|
|-0-x8-5-x8-9-x8-7-x8-|-0-x8-5-x8-9-x8-7-x8--9--7--5---0~-|
|-0----5----9----7----|-0----5----9----7-----9--7--5---0~-|

GTR3 - enters
|------------------------------------|----|---------------|
|------------------------------------|----|---------------|
|---4---------------------4----------|----|-9--11-7~------|
|-7---7-4-7--4-2-0-2-4--7---7-4-7-0~-|----|------------0~-|
|------------------------------------|-x2-|-7--9--5~---0~-|
|------------------------------------|----|------------0~-|
Suggest correction
comments
print report bad tab
guest
You may want to rate the tab now too:
select rating
Please do not post tabs as comments. Select "correction" instead!