Oops, an error
Loading. Please wait.

Cardinals bass

version 1
version 1

Whole song

Interactive

1,794 views 6 this week
no commentswrite comment
1 2 3 4 5
1 last vote to show rating
add to favorites
×
Save as Personal and add changes to this tab that will be seen only by you. Learn more ›
×
You can save this tab as Personal to edit and correct it or add notes. All changes will be seen only by you. Learn more »
launch autoscroll
font size
0
reset
guitar tuner
edit
Autoscroll
slow
fast
+/-
esc
set tempo
stop
The Wonder Years - Cardinals

Tabbed by: ashy (XxThreeCheersxX)
E-mail: burdickash@gmail.com

Tuning: Drop C# (C# G# C# F#)

Off of up the upcoming album No Closer to Heaven!

Happy playing!

Note: This song is in triple meter.

Intro (no bass)

Verse I
F#|-------------------------------------------------------------------------|
C#|-------------------------------------------------------------------------|
G#|-------------------------------------------------------------------------| x 2
C#|-2--2--2--2--2--2--2--2--2--4--4--4--5--5--5--5--5--5--5--5--5--0--0--0--|

"Staring at a hole in your chest that's been dug there for decades"
F#|-------------------------------------------------------------------------|
C#|-------------------------------------------------------------------------|
G#|-------------------------------------------------------------------------| x 2
C#|-2--2-2-2-2--2-2-2-2--2-2-2-4--4--4--5--5-5-5-5--5-5-5-5--5-5-5-0--0--0--|

Pre-Chorus (come in at "Own again")
F#|-------------------------------------|
C#|-------------------------------------|
G#|-3--3-3-3-3--3-3-3-3--3-3-3-5--5--5--|
C#|-------------------------------------|

F#|-0~-----------------------------------------------------------------|
C#|---------4~------2~-------------------------------------------------|
G#|------------------------2~------3--3-3-3-3--3-3-3-3--3-3-3-5--5--5--|
C#|--------------------------------------------------------------------|

Chorus
F#|-------------------------------------------------------------------------------------|
C#|-------------------------------------------------------------------------------------|
G#|----------------------------------5--5--5--3--3-3-3-3-3--3-3-3-3-3--3-3-3-3-5--5--5--|
C#|-5--5-5-5-5-5--5-5-5-5-5--5-5-5-5----------------------------------------------------|

F#|-----------------------------------------------------------------------------------|
C#|-----------------------------------------------------------------------------------|
G#|----------------------------------5--5--5--3--3-3-3-3-3--3-3-3-3-3--3--3--5--5--5--|
C#|-5--5-5-5-5-5--5-5-5-5-5--5-5-5-5--------------------------------------------------|

Post-chorus
F#|---------------------------------|
C#|---------------------------------|
G#|---------------------------------|
C#|-2~------4~------5~------0~------|

Verse II (on the second time play staccato)
F#|-------------------------------------------------------------------------|
C#|-------------------------------------------------------------------------|
G#|-------------------------------------------------------------------------| x 2
C#|-2--2-2-2-2--2-2-2-2--2-2-2-4--4--4--5--5-5-5-5--5-5-5-5--5-5-5-0--0--0--|

Pre-Chorus II
F#|-0~--------------------------------------------5~------|
C#|---------4~------2~--------------------5~--------------|
G#|------------------------2~------3~---------------------|
C#|-------------------------------------------------------|

Chorus (same as before)

Bridge
F#|---------------------------------------------------------------------------|
C#|---------------------------------------------------------------------------|
G#|---------------------------------------------------------------------------| x 2
C#|-5---5x---5---5x---5---5x--0--0--0--2---2-2---2---2-2---2---2-2---4--4--4--|

F#|---------------------------------------------------------------------------|
C#|---------------------------------------------------------------------------|
G#|------------------------------------------------------------------2--2--2--| 
C#|-5---5x---5---5x---5---5x--0--0--0--2---2-2---2---2-2---2---2-2------------|

F#|---------------------------------------|
C#|---------------------------------------|
G#|-3--3-3-3-3-3-3-3-3-3-3-3-3-3-3-3-3-3x-|
C#|---------------------------------------|

Final Chorus
F#|-------------------------------------------------------------------------------------|
C#|-------------------------------------------------------------------------------------|
G#|----------------------------------5--5--5--3--3-3-3-3-3--3-3-3-3-3--3-3-3-3-5--5--5--| x 2
C#|-5--5-5-5-5-5--5-5-5-5-5--5-5-5-5----------------------------------------------------|

F#|-------------------------------------------------------------------------------------------------|
C#|-------------------------------------------------------------------------------------------------|
G#|-------------------------------------5-5-5-5-5-5-3-3-3-3-3-3-3-3-3-3-3-3-3-3-3-3-3-3-5-5-5-5-5-5-| 
C#|-5-5-5-5-5-5-5-5-5-5-5-5-5-5-5-5-5-5-------------------------------------------------------------|

F#|-------------------------------------------------------------------------------------------------|
C#|-------------------------------------------------------------------------------------------------|
G#|-------------------------------------5-5-5-5-5-5-3-3-3-3-3-3-3-3-3-3-3-3-3-3-3-3-3-3-------------| 
C#|-5-5-5-5-5-5-5-5-5-5-5-5-5-5-5-5-5-5-------------------------------------------------0-0-0-0-0-0-|

Outro
F#|----------------------------------|
C#|----------------------------------|
G#|----------------------------------|
C#|-5~-------------------------------|

| /  slide up
| \  slide down
| h  hammer-on
| p  pull-off
| ~  vibrato
| +  harmonic
| x  Mute note
===============================================================================

            
            
Suggest correction
Creating personal tab
Creating personal tab
You can edit any tab online and save it as your Personal.

You can edit, replace or remove any tab part or add personal notes – all changes will be seen only by you.

Personal tabs can be accessed anytime from any device, even offline.
Learn more »
Give kudos to tab author, rate the tab!
1 2 3 4 5
There is a new version of this tab from 5 days ago which you may like more. Go check it out:
comments
print report bad tab
guest
You may want to rate the tab now too:
select rating
Wanna post a correction for this tab? Suggest correction