Oops, an error
Loading. Please wait.

Cardinals tab

version 1
version 1

Whole song

Interactive

22,907 views 114 this week
6 commentsread comments
1 2 3 4 5
x 27
add to favorites
×
Save as Personal and add changes to this tab that will be seen only by you. Learn more ›
×
You can save this tab as Personal to edit and correct it or add notes. All changes will be seen only by you. Learn more »
launch autoscroll
font size
0
reset
how to read this tab
guitar tuner
edit
Autoscroll
slow
fast
+/-
esc
set tempo
stop
Tabbed by: Blake McConnell
E-mail: blakekelseymcconnell@gmail.com

Check out my cover of the song
https://www.youtube.com/watch?v=gdRzItAA754

Tuning:Drop C#

[Intro]

e|---------------------------------------------------------------------------|
B|---------------------------------------------------------------------------|
G|--0-0040-0------40---0---0--0--0--0---0-0040-0------40--0--0--0--0--0------|
D|--------4-4-2-22----0---0--0--0--0----------4-4-2-22---0--0--0--0--0-------| x 2
A|-------------------2---3--3--3--5---------------------2--3--3--3--5--------|
E|---------------------------------------------------------------------------|


[Verse]

e|---------------------------------------------------------------------------|
B|---------------------------------------------------------------------------|
G|---------------------------------------------------------------------------|
D|--2-2222-2-2-2-2-2222-4-4-4-5-5555-5-5-5-5-5555-0-0-0----------------------| x 2
A|--2-2222-2-2-2-2-2222-4-4-4-5-5555-5-5-5-5-5555-0-0-0----------------------|
E|--2-2222-2-2-2-2-2222-4-4-4-5-5555-5-5-5-5-5555-0-0-0----------------------|


[Pre-Chorus]

e|---------------------------------------------------------------------------|
B|---------------------------------------------------------------------------|
G|--0-0040-0------40--0-5-55-55-55-55-55-55-55-------------------------------|
D|--------4-4-2-22---0--5-55-55-55-55-55-55-55-------------------------------|
A|------------------2---3-33-33-33-33-33-33-33-------------------------------|
E|---------------------------------------------------------------------------|

e|---------------------------------------------------------------------------|
B|--010----------010---------------------------------------------------------|
G|-----020----------020-------5-55-55-55-55-55-57-77-------------------------|
D|--------242----------242----5-55-55-55-55-55-57-77-------------------------|
A|-----------020----------020-3-33-33-33-33-33-35-55-------------------------|
E|---------------------------------------------------------------------------|


[Chorus]

e|---------------------------------------------------------------------------|
B|---------------------------------------------------------------------------|
G|-----------------------4-4-4-5-5555-5-5555-5-5555-7-7-7--------------------|
D|--5-5555-5-5555-5-5555-5-5-5-5-5555-5-5555-5-5555-7-7-7--------------------| x 2
A|--5-5555-5-5555-5-5555-2-2-2-3-3333-3-3333-3-3333-5-5-5--------------------|
E|--5-5555-5-5555-5-5555-----------------------------------------------------|


[Post-Chorus]

e|---------------------------------------------------------------------------|
B|---------------------------------------------------------------------------|
G|---------------------------------------------------------------------------|
D|--2~-----4~-----5~-----0~--------------------------------------------------|
A|--2~-----4~-----5~-----0~--------------------------------------------------|
E|--2~-----4~-----5~-----0~--------------------------------------------------|


[Verse] x2


[Pre-chorus 2]

e|---------------------------------------------------------------------------|
B|--------------------------------5~-----------------------------------------|
G|--0-0040-0------40--0--0--0-0~--0~-----------------------------------------|
D|--------4-4-2-22---0--0--0--0~--4~-----------------------------------------|
A|------------------2--3--3---3~--5~-----------------------------------------|
E|---------------------------------------------------------------------------|


[Chorus] x2


[Bridge]

e|---------------------------------------------------------------------------|
B|---------------------------------------------------------------------------|
G|---------------------------------------------------------------------------|
D|--5-55--55-55--55-55-0-0-0-2-22--22-22--22-22-4-4-4------------------------| x4
A|--5-55--55-55--55-55-0-0-0-2-22--22-22--22-22-4-4-4------------------------|
E|--5-55--55-55--55-55-0-0-0-2-22--22-22--22-22-4-4-4------------------------|

e|---------------------------------------------------------------------------|
B|---------------------------------------------------------------------------|
G|--5-5555555555555555-------------------------------------------------------|
D|--5-5555555555555555-------------------------------------------------------|
A|--3-3333333333333333-------------------------------------------------------|
E|---------------------------------------------------------------------------|


[Chorus]


[Outro Chorus]

e|---------------------------------------------------------------------------|
B|---------------------------------------------------------------------------|
G|-----------------------------5-5555-5-5555-5-5555--------------------------|
D|--2-2222-2-2222-2-2222-4-4-4-5-5555-5-5555-5-5555-0-0-0-x2--5~-------------|
A|--2-2222-2-2222-2-2222-4-4-4-3-3333-3-3333-3-3333-0-0-0-----5~-------------|
E|--2-2222-2-2222-2-2222-4-4-4----------------------0-0-0-----5~-------------|
 

************************************

| x  Dead note
| ~  Vibrato

************************************
Suggest correction
Creating personal tab
Creating personal tab
You can edit any tab online and save it as your Personal.

You can edit, replace or remove any tab part or add personal notes – all changes will be seen only by you.

Personal tabs can be accessed anytime from any device, even offline.
Learn more »
comments
print report bad tab
6 comments total. Showing first comments.
0 reply
XxThreeCheersxX 13,175 Jul 20, 2015 07:00 PM

Perfect! Thank you!

-2 reply
Mean Mr Mustard 5,604 Jul 21, 2015 12:04 PM

e|------------------------------------------------------------|
B|------------------------------------------------------------|
G|----0--------0-----0-----------0-----0-----0-----0------0---|
D|-----0h9p0-----------0h9p0---0-----0-----0-----0------------|
A|-10--------9---9-7------------------------------------9-----|
E|---------------------------7-----8-----8-----8-----10-------|


I think the intros played like this

-1 reply
elohelliot 10 Sep 03, 2015 10:01 AM

Try this for the intro i think it sounds the slightest bit more accurate

D#||----------------------------------------------------------------
A#||----------------------------------------------------------------
F#||--0---0----4p0------0----------------2p0--------0--------0------
C#||--------h5-------4-----4--2---2h5-------------0--------2--------
G#||-------------------------------------------2--------3-----------
C#||----------------------------------------------------------------


----------------------------
----------------------------
-------0--------0--------0--
----2--------2--------4-----
--3-------3--------5--------
----------------------------

Great job on everything else though!

guest
You may want to rate the tab now too:
select rating
Wanna post a correction for this tab? Suggest correction