Oops, an error
Loading. Please wait.

I Dont Like Who I Was Then bass

1,265 views 1 this week
no commentswrite comment
1 2 3 4 5
1 last vote to show rating
add to favorites
×
Save as Personal and add changes to this tab that will be seen only by you. Learn more ›
×
You can save this tab as Personal to edit and correct it or add notes. All changes will be seen only by you. Learn more »
launch autoscroll
font size
0
reset
guitar tuner
edit
Autoscroll
slow
fast
+/-
esc
set tempo
stop
The Wonder Years - I Don't Like Who I Was Then

Tabbed by: Ashy (XxThreeCheersxX)
E-mail: burdickash@gmail.com

Tuning: Drop C#

Intro
F#|-------------------------------------------------------------------------|
C#|-------------------------------------------------------------------------|
G#|-------------------4-4-4-4---4---4---0-0-0-0---0---0---2-2-2-2---2---2---| x 2
C#|-2-2-2-2---2---2---------------------------------------------------------|

Verse I
F#|-----------------------------------------------------------------|
C#|-----------------------------------------------------------------|
G#|---------------------------------4-4-4-4-4-4-4-4-4-4-4-4-4-4-4-4-|
C#|-2-2-2-2-2-2-2-2-2-2-2-2-2-2-2-2---------------------------------|

F#|---------------------------------------------------------------------------|
C#|---------------------------------------------------------------------------|
G#|-0-0-0-0-0-0-0-0-0-0-0-0-0-0-0-0-2~-------------------/6~------------------|
C#|---------------------------------------------------------------------------|

F#|-----------------------------------------------------------------|
C#|-----------------------------------------------------------------|
G#|---------------------------------4-4-4-4-4-4-4-4-4-4-4-4-4-4-4-4-|
C#|-2-2-2-2-2-2-2-2-2-2-2-2-2-2-2-2---------------------------------|

F#|-----------------------------------------------------------------|
C#|-----------------------------------------------------------------|
G#|-0-0-0-0-0-0-0-0-0-0-0-0-0-0-0-0-2-2-2-2-2-2-2-2-2-2-2-2-2-2-2-2-|
C#|-----------------------------------------------------------------|

Pre-Chorus
F#|-----------------------------------------------------------------|
C#|-----------------------------------------------------------------|
G#|-0-0-0-0-0-0-0-0-0-0-0-0-0-0-0-0-2-2-2-2-2-2-2-2-2-2-2-2-2-2-2-2-|
C#|-----------------------------------------------------------------|

F#|-----------------------------------------------------------------|
C#|-----------------------------------------------------------------|
G#|-7-7-7-7-7-7-7-7-5-5-5-5-5-5-5-5-0-0-0-0-0-0-0-0-0-0-0-0-0-0-0-0-|
C#|-----------------------------------------------------------------|

F#|-------------------------------------------|
C#|-------------------------------------------|
G#|-0--0--0--0--0--0--0--0--2--2--2--2--2x----|
C#|-------------------------------------------|

Chorus
F#|-------------------------------------------------------------------------------------------------|
C#|-------------------------------------------------------------------------------------------------|
G#|-------------------------------------------------0--0--0--0--0--0--0--0--0--0--0--0--0--0--0--0--|
C#|-2--2--2--2--2--2--2--2--2--2--2--2--2--2--2--2--------------------------------------------------|

F#|-------------------------------------------------------------------------------------------------------|
C#|-------------------------------------------------------------------------------------------------------|
G#|-7--7--7--6--6--6--6--6--4--4--4--4--2x----2x----0----0--0--0--0--0--0--0--0--0--0--0--x-x-x-x-x-x-x-x-|
C#|-------------------------------------------------------------------------------------------------------|

"If I could manage not to fuck this up"
F#|-------------------------------------------------------------------------------------------------|
C#|-------------------------------------------------------------------------------------------------|
G#|-4--4--4--4--4--4--4--4--4--4--4--4--7--7--9--9--2--2--2--2--2--2--2--2--2--2--2--2--7--7--6--6--|
C#|-------------------------------------------------------------------------------------------------|

F#|----------------------------------------------------------------------|
C#|----------------------------------------------------------------------|
G#|-0~----------------------------0~-------------------------------------|
C#|----------------------------------------------------------------------|

Verse II
F#|-----------------------------------------------------------------|
C#|-----------------------------------------------------------------|
G#|---------------------------------4-4-4-4-4-4-4-4-4-4-4-4-4-4-4-4-|
C#|-2-2-2-2-2-2-2-2-2-2-2-2-2-2-2-2---------------------------------|

F#|-----------------------------------------------------------------|
C#|-----------------------------------------------------------------|
G#|-0-0-0-0-0-0-0-0-0-0-0-0-0-0-0-0-2-2-2-2-2-2-2-2-2-2-2-2-2-2-2-2-|
C#|-----------------------------------------------------------------|

F#|-----------------------------------------------------------------|
C#|-----------------------------------------------------------------|
G#|---------------------------------4-4-4-4-4-4-4-4-4-4-4-4-4-4-4-4-|
C#|-2-2-2-2-2-2-2-2-2-2-2-2-2-2-2-2---------------------------------|

F#|---------------------------------------------------------|
C#|---------------------------------------------------------|
G#|-0-0-0-0-0-0-0-0-0-0-0-0-0-0-0-0-2--2--2--2--2--2--2--2--|
C#|---------------------------------------------------------|

Pre-Chorus II
F#|-------------------------------------------------------------------------------------------------|
C#|-------------------------------------------------------------------------------------------------|
G#|-0--0--0--0--0--0--0--0--7--7--7--7--7--7--7--7--0--0--0--0--0--0--0--0--4--4--4--4--4--4--6--6--|
C#|-------------------------------------------------------------------------------------------------|

F#|-------------------------------------------------------------------------------------------------|
C#|-------------------------------------------------------------------------------------------------|
G#|-0--0--0--0--0--0--0--0--7--7--7--7--7--7--7--7--2--2--2--2--2--2--2--2--2--2--2--2--2--2--2x----|
C#|-------------------------------------------------------------------------------------------------|

Chorus

Bridge (come in with the rest of the band) x 2
F#|-------------------------------------------------------------------------------------------------|
C#|-------------------------------------------------------------------------------------------------|
G#|-4--4--4--4--4--4--4--4--4--4--4--4--4--7--7--7--0--0--0--0--0--0--0--0--0--0--0--0--0--0--0--0--|
C#|-------------------------------------------------------------------------------------------------|

F#|-------------------------------------------------------------------------------------------------|
C#|-------------------------------------------------------------------------------------------------|
G#|-------------------------------------------------2--2--2--2--2--2--2--2--2--2--2--2--2--2--2-----|
C#|-4--4--4--4--4--4--4--4--4--4--4--4--4--4--4--4--------------------------------------------------|

Final Chorus
F#|-------------------------------------------------------------------------------------------------|
C#|-------------------------------------------------------------------------------------------------|
G#|-------------------------------------------------0--0--0--0--0--0--0--0--0--0--0--0--0--0--0--0--|
C#|-2~-------------------------------------x--x-----------------------------------------------------|

F#|---------------------------------------------------------------------------------------------------|
C#|---------------------------------------------------------------------------------------------------|
G#|-7--7--7--6--6--6--6--6--4--4--4--4--2x----2x----0----0--0--0--0--0--0--0--0--0--0--0--x--x--x--x--|
C#|---------------------------------------------------------------------------------------------------|

"If I could manage not to fuck this up"
F#|-------------------------------------------------------------------------------------------------|
C#|-------------------------------------------------------------------------------------------------|
G#|-4--4--4--4x----4--4--4x----4--4--4--7--7--9--9--2--2--2--2x----2--2--2x----2--2--2--7--7--6--6--|
C#|-------------------------------------------------------------------------------------------------|

F#|----------------------------------------------------------------------|
C#|----------------------------------------------------------------------|
G#|-0~-------------------------------------------------------------------|
C#|----------------------------------------------------------------------|

Happy playing!

| /  slide up
| \  slide down
| h  hammer-on
| p  pull-off
| ~  vibrato
| +  harmonic
| x  Mute note
===============================================================================

            
            
Suggest correction
Creating personal tab
Creating personal tab
You can edit any tab online and save it as your Personal.

You can edit, replace or remove any tab part or add personal notes – all changes will be seen only by you.

Personal tabs can be accessed anytime from any device, even offline.
Learn more »
Give kudos to tab author, rate the tab!
1 2 3 4 5
comments
print report bad tab
guest
You may want to rate the tab now too:
select rating
Wanna post a correction for this tab? Suggest correction