Oops, an error
Loading. Please wait.

Keystone State Dude-Core Tab

2,395 views 1 this week
no commentswrite comment
1 2 3 4 5
accurate
x 3
add to favorites
launch autoscroll
font size
0
reset
how to read this tab
guitar tuner
Autoscroll
slow
fast
+/-
esc
set tempo
stop
Help us to improve Ultimate-Guitar.com Take our survey!
×
Author
Difficulty
Tuning
novice
C# G# C# F# A# D#
Tuning: Drop C#
Intro x1
E|----------------------------------|
B|----------------------------------|
G|--------------1111111111----------|
D|-0~-----0~----x-x-x-x-x-----------|
A|-0~-----0~----9-9-9-9-9-----------|
E|-0~-----0~------------------------|

Verse x2
E|-----------------------------------------------------------|
B|-----------------------------------------------------------|
G|------111111------111111-11/9--7\9/7--7/9/11--12/141414----|
D|-000--x-x-x--000--x-x-x--x-/x--x\x/x--x/x/x----x/-x-x-x----|
A|-000--9-9-9--000--9-9-9--9-/7--5\7/5--5/7/9---10/121212----|
E|-000---------000-------------------------------------------|

Pre Chorus x1
E|--------------------------------------------------|
B|--------------------------------------------------|
G|--------------------------------------------------|
D|-44444-55555-2222222222--44444-55555-22222-77777--|
A|-44444-55555-2222222222--44444-55555-22222-77777--|
E|-44444-55555-2222222222--44444-55555-22222-77777--|

 Chorus x2
E|--------------------------------------|
B|--------------------------------------|
G|-------------------77777777-----------|
D|-99999999-55555555-77777777-777777777-|
A|-99999999-55555555-55555555-777777777-|
E|-99999999-55555555----------777777777-|

Verse 2
E|-----------------------------------------------------------|
B|-----------------------------------------------------------|
G|------111111------111111-11/9--7\9/7--7/9/11--12/141414----|
D|-000--x-x-x--000--x-x-x--x-/x--x\x/x--x/x/x----x/-x-x-x----|
A|-000--9-9-9--000--9-9-9--9-/7--5\7/5--5/7/9---10/121212----|
E|-000---------000-------------------------------------------|

¿DONDE ESTA LA CAVE?

Verse 2 Cont'd
E|------------------------------------|
B|------------------------------------|
G----11/9--7\9/7--7/9/11--12/141414---|
D|----x/x--x\x/x--x/x/x----x/-x-x-x---|
A|----9/7--5\7/5--5/7/9---10/121212---|
E|------------------------------------|


Pre Chorus x1
E|--------------------------------------------------|
B|--------------------------------------------------|
G|--------------------------------------------------|
D|-44444-55555-2222222222--44444-55555-22222-77777--|
A|-44444-55555-2222222222--44444-55555-22222-77777--|
E|-44444-55555-2222222222--44444-55555-22222-77777--|

 Chorus x2
E|--------------------------------------|
B|--------------------------------------|
G|-------------------77777777-----------|
D|-99999999-55555555-77777777-777777777-|
A|-99999999-55555555-55555555-777777777-|
E|-99999999-55555555----------777777777-|

Outro
E|------------------------------|
B|------------------------------|
G|-1111\99/1414\1111/7----------|
D|-x-x-\xx/x-x-\x-x-/x----------|
A|-9-9-\77/1010\9-9-/5----------|
E|------------------------------|

This tab is eh. but i'm pretty sure it's mostly right.
More TWY stuff to come! You can figure out the strumming patterns
it's not hard. <3 dan
Suggest correction
Give kudos to tab author, rate the tab!
1 2 3 4 5
comments
print report bad tab
guest
You may want to rate the tab now too:
select rating
Please do not post tabs as comments. Select "correction" instead!