Oops, an error
Loading. Please wait.

Local Man Ruins Everything bass

version 1
version 1

Whole song

Interactive

2,678 views 3 this week
no commentswrite comment
1 2 3 4 5
x 4
add to favorites
×
Save as Personal and add changes to this tab that will be seen only by you. Learn more ›
×
You can save this tab as Personal to edit and correct it or add notes. All changes will be seen only by you. Learn more »
launch autoscroll
font size
0
reset
guitar tuner
edit
Autoscroll
slow
fast
+/-
esc
set tempo
stop
Intro
----------------------------------------------------|
----------------------------------------------------|
4-4--44--2-2--22------------------0-0-0-0-0-2-2-2---|
------------------2-2-2-2-2-2-2-2-------------------|

----------------------------------------------------|
----------------------------------------------------|
4-4--44--2-2--22------------------------------------|
------------------2-2-2-2-2-2-2-2-2-2-2-2-2-2-2-2---|

Verse 1 ("The fountain was off...")
------------|
------------|
00-------2~-|
------------|

"...first time I've been back to the city in months"
-------------------------------|
-------------------------------|
-------------------------------|
2-2-2-2-2-2-2-2-2-2-2-2-2-2-2--|

"I'm trying to hold it together..."
----------------------------------------------------------------|
----------------------------------------------------------------|
0-0-0-0-0-0-0-0-2-2-2-2-2-2-2-2---------------------------------|
--------------------------------2-2-2-2-2-2-2-2-2-2-2-2-2-2-2-2-|

        "and you know..."
--------|
--------|
0-0-----|
--------|

"I try so hard to be some great white hope"
------------------------------|
------------------------------|
------------------------------|
2-2-2-2-2-2-2-2-2-2-2-2-2-2-2-|

"but I can't...."
----------------------------------------------------------------|
----------------------------------------------------------------|
0-0-0-0-2-2-2-2-4-4-4-4---------0-0-0-0-2-2-2-2-----------------|
------------------------4-4-4-4-----------------2-2-2-2-2-2-----|

Chorus
----------------------------------------------------------------|
----------------------------------------------------------------|
4-4-4-4-4-4-4-4-2-2-2-2-2-2-2-2-----------------0-0-0-0-0-0-0-0-|
--------------------------------2-2-2-2-2-2-2-2-----------------|

----------------------------------------------------------------|
----------------------------------------------------------------|
4-4-4-4-4-4-4-4-2-2-2-2-2-2-2-2---------------------------------|
--------------------------------2-2-2-2-2-2-2-2-2-2-2-2-2-2-2-2-|

--------------------------------------------------|
--------------2-----------------------------------|
4-4--44--2-2---2------------------0-0-0-0-0-0-0-0-|
------------------2-2-2-2-2-2-2-4-----------------|

--------------------------------------------------|
-----4--------------------------------------------|
4-4---4--2-2--22----------------------------------|
------------------2-2-2-2-2-2-2-2-2-2-2-2-2-2-2-2-|

Post-Chorus (Pre-Verse?)
----------------------------------------------------------------|
----------------------------------------------------------------|
0-0-0-0-0-0-0-0-2-2-2-2-2-2-2-2-0-0-0-0-0-0-0-0-----------------|
------------------------------------------------2-2-2-2-2-2-2-2-|

----------------------------------------------------------------|
----------------------------------------------------------------|
0-0-0-0-2-2-2-2-4-4-4-4---------0-0-0-0-2-2-2-2-----------------|
------------------------4-4-4-4-----------------2-2-2-2-2-2-----|

Verse 3
"...roses in the closet"
----------------------------------------------------------------|
----------------------------------------------------------------|
0-0-0-0-0-0-0-0-0-0-0-0-0-0-0-0---------------------------------|    (x4)
--------------------------------2-2-2-2-2-2-2-2-2-2-2-2-2-2-2-2-|

----------------------|
----------------------|
0~--------------------|
----------2~------/19-| (you don't really hit a note, just slide)

---------------------|
---------------------|
0~-------------------|
----------2----------|

Chorus
----------------------------------------------------------------|
----------------------------------------------------------------|
4-4-4-4-4-4-4-4-2-2-2-2-2-2-2-2-----------------0-0-0-0-0-0-0-0-|
--------------------------------2-2-2-2-2-2-2-2-----------------|

----------------------------------------------------------------|
----------------------------------------------------------------|
4-4-4-4-4-4-4-4-2-2-2-2-2-2-2-2---------------------------------|
--------------------------------2-2-2-2-2-2-2-2-2-2-2-2-2-2-2-2-|


--------------------------------------------------|
--------------2-----------------------------------|
4-4--44--2-2---2------------------0-0-0-0-0-0-0-0-|
------------------2-2-2-2-2-2-2-4-----------------|

--------------------------------------------------|
-----4--------------------------------------------|
4-4---4--2-2--22----------------------------------|
------------------2-2-2-2-2-2-2-2-2-2-2-2-2-2-2-2-|

Bridge
("...roses in the closet")
------------------------------------------------|
------------------------------------------------|
4~------2~--------------------------------------|
----------------2-2-2-2-2-2-2-2-2-2-2-2-2-2-2-2-|

------------------------------------------------|
------------------------------------------------|
4~------6~------7-7-7-7-7-7-7-7-7-7-7-7-7-7-7-7-|
------------------------------------------------|

"I'm not a self-help book..."
----------------------------------------------------------------|
----------------------------------------------------------------|
4-4-4-4-4-4-4-4-2-2-2-2-2-2-2-2---------------------------------|   (x2)
--------------------------------2-2-2-2-2-2-2-2-2-2-2-2-2-2-2-2-|

Outro
----------------------|
----------------------|
0~--------------------|
----------2~------/19-|

--------------------|
--------------------|
0~------------------|
---------2----------|
Suggest correction
Creating personal tab
Creating personal tab
You can edit any tab online and save it as your Personal.

You can edit, replace or remove any tab part or add personal notes – all changes will be seen only by you.

Personal tabs can be accessed anytime from any device, even offline.
Learn more »
comments
print report bad tab
guest
You may want to rate the tab now too:
select rating
Wanna post a correction for this tab? Suggest correction