Oops, an error
Loading. Please wait.

Logan Circle bass

version 1
version 1

Whole song

2,298 views 1 this week
no commentswrite comment
1 2 3 4 5
2 more votes to show rating
add to favorites
×
Save as Personal and add changes to this tab that will be seen only by you. Learn more ›
×
You can save this tab as Personal to edit and correct it or add notes. All changes will be seen only by you. Learn more »
launch autoscroll
font size
0
reset
guitar tuner
edit
Autoscroll
slow
fast
+/-
esc
set tempo
stop
Difficulty
Logan Circle-The Wonder Years (bass tab)

This is my first tab, I think it's pretty much spot on, here's a link to me playing 
this: http://www.youtube.com/watch?v=IoPFIxpuuVM

Verse
G|---------------------------------------------------------------------------|
D|---------------------------------------------------------------------------|
A|-4-1-----------------------------------------------------------------------|
E|-----4--222-111-222-111----------------------------------------------------|

G|---------------------------------------------------------------------------|
D|---------------------------------------------------------------------------|
A|444444444444-11111111111---------------------------------------------------|
E|------------------------444444444444-222-111-222-111-----------------------|

G|---------------------------------------------------------------------------|
D|---------------------------------------------------------------------------|
A|----------------4444444-1111111----------------4~--------------------------|(X2 Here)
E|2222222-4444444-----------------2222222-4444444----------------------------|


Chorus (I’m afraid that we’re wasting away)
G|---------------------------------------------------------------------------|
D|---------------------------------------------------------------------------|
A|----------------------------4~---------------------------------------------|
E|2222-4444-1111-22222222-4444---2222-4444-1111-22222222---------------------|

(I’m not even scared anymore)
G|---------------------------------------------------------------------------|
D|---------------------------------------------------------------------------|
A|4h6p4h6p4----- 4444444-----------------------------------------------------|
E|----------6p4 4------------------------------------------------------------|

Bridge (on the backups singing they turned on the fountain today)
G|---------------------------------------------------------------------------|
D|---------------------------------------------------------------------------|
A|------4~------------------------------4~-----------------------------------|
E|-2~-4~----2222-4444-1111-22222222-4444-------------------------------------|

Before last Chorus (I’m afraid that we’re wasting away, I’m afraiiiiiiid)
G|---------------------------------------------------------------------------|
D|---------------------------------------------------------------------------|
A|---------------------------------------------------------------------------|
E|2222-4444-1111-22222222-44444444-------------------------------------------|



Verse
Chorus
Verse
Chorus
Bridge
Before Last Chorus
Chorus

            
            
Suggest correction
Creating personal tab
Creating personal tab
You can edit any tab online and save it as your Personal.

You can edit, replace or remove any tab part or add personal notes – all changes will be seen only by you.

Personal tabs can be accessed anytime from any device, even offline.
Learn more »
Give kudos to tab author, rate the tab!
1 2 3 4 5
comments
print report bad tab
guest
Wanna post a correction for this tab? Suggest correction