Oops, an error
Loading. Please wait.

Melrose Diner bass

version 1
version 1

Whole song

5,047 views 1 this week
2 commentsread comments
1 2 3 4 5
x 5
add to favorites
×
Save as Personal and add changes to this tab that will be seen only by you. Learn more ›
×
You can save this tab as Personal to edit and correct it or add notes. All changes will be seen only by you. Learn more »
launch autoscroll
font size
0
reset
guitar tuner
edit
Autoscroll
slow
fast
+/-
esc
set tempo
stop
I wrote down the tabs from this video: http://www.youtube.com/watch?v=Pw7-DO61loE I'm 
not 100% sure on the tabs so if you have any problems watch the video.


Intro
G|-----5--4------------------------------------------------------|
D|-------------5--5----------------------------------------------|
A|---3------3-------7-3------------------------------------------|
E|---------------------------------------------------------------|

G|---------------------------------------------------------------|
D|-----------5-5-------------------77777777----------------------|
A|-3-3-5-5-5-----5-5--7--------5-55------------------------------|
E|----------------------3—--3-3----------------------------------|


 ‘I hate your bad tattoos..’
G|---------------------------------------------------------------|
D|------------------------------------------55-33-22-00----------|
A|-3-3-5-5-5----------------[X3]--3-3-5-5-5----------------------|
E|-----------3-3-3-3-3-3-3---------------------------------------|

‘and I’m just fond of anyone..’
G|---------------------------------------------|
D|---------------------------------------------|
A|-33333333 -----------------------------------|
E|---------5555--333333---x3x3x3x3x3-----------|

G|---------------------------------------------|
D|---------------------------------------------|
A|-33333333--------------------333333333-------|
E|---------555555--3333333333------------------|


‘I hate the way I get when I can’t handle...’
G|---------------------------------------------------------------|
D|------------------------------------------55-33-22-00----------|
A|-3-3-5-5-5----------------[X3]--3-3-5-5-5----------------------|
E|-----------3-3-3-3-3-3-3---------------------------------------|

‘I guess I’m just...’
G|---------------------------------------------------------------|
D|---------------------------------------------------------------|
A|--3--3-3-3-3-3-------------------------------------------------|
E|----------------5--5-5-5-5-5-5-5--7--7-7-7-7-7—-3--3-3-3-3-3-3-|
 [X2]

‘I hate way you can’t keep your hair straight...’
G|---------------------------------------------------------------|
D|---------------------------------------------------------------|
A|-3~------------------------------------------------------------|
E|---5~-0h57-7-7-7-7-7-7---3333333333333333----------------------|

‘I hate the context clues...’

G|---------------------------------------------------------------|
D|--------------------------------------------------55--33-------|
A|-3-3-5-5-5----------------[X3]--3- pause ----------------------|
E|-----------3-3-3-3-3-3-3---------------------------------------|

‘I guess I’m just...’
G|---------------------------------------------------------------|
D|---------------------------------------------------------------|
A|--3--3-3-3-3-3-------------------------------------------------|
E|----------------5--5-5-5-5-5-5-5--7--7-7-7-7-7—-3--3-3-3-3-3-3-|
 [X2]

‘I could use you around....’
G|----------------------|
D|---5------------------|
A|-3--7-5-7-5—[X3]-3~---|
E|----------------------|



‘My friends all say...’
G|----------------------------------------------------------------|
D|----------------------------------------------------------------|
A|3-3-3-3-3-3-3-3-3-3-3-3-3-3-3-3---------------------------------|
E---------------------------------5-5-5-5-5-5-5-5-5-5-5-5-5-5-5-5-|
[X4]


‘My friends all he’s just the broke-dick...’
G|----------------------------------|
D|----------------------------------|
A|-3------------3~------------------|
E|----5-53--3-5----55—3~3333333-----|

‘Just down...’
G|---------------------------------------------------------------|
D|---------------------------------------------------------------|
A|--3-----3-3-3-3-3----------------------------------------------|
E|-----------------5--5-5-5-5-5-5-5-7--7-7-7-7-7-—3-3-3-3-3-3-3--|

G|---------------------------------------------------------------|
D|---------------------------------------------------------------|
A|--3--3-3-3-3-3-------------------------------------------------|
E|----------------5--5-5-5-5-5-5-5--7--7-7-7-7-7—-3--3-3-3-3-3-3-|


‘Use you around...’
G|---------------------------------------------------------------|
D|---------------------------------------------------------------|
A|--3--3-3-3-3-3-------------------------------------------------|
E|----------------5--5-5-5-5-5-5-5--7--7-7-7-7-7—-3--3-3-3-3-3-3-|

G|---------------------------------------------------------------|
D|---------------------------------------------------------------|
A|--3--3-3-3-3-3-------------------------------------------------|
E|----------------5--5-5-5-5-5-5-5--7--7-7-7-7-7—-3~-------------|








Surry
Suggest correction
Creating personal tab
Creating personal tab
You can edit any tab online and save it as your Personal.

You can edit, replace or remove any tab part or add personal notes – all changes will be seen only by you.

Personal tabs can be accessed anytime from any device, even offline.
Learn more »
comments
print report bad tab
2 comments total.
0 reply
Endeavour1337 10 Dec 04, 2013 09:28 PM

Wrong tuning.

0 reply
XxThreeCheersxX 13,177 Sep 27, 2015 08:36 AM

you're getting some of the guitar parts mixed up with the bass.

guest
Wanna post a correction for this tab? Suggest correction