Oops, an error
Loading. Please wait.

Suburbia Ive Given You All And Now Im Nothing Acoustic tab

43 views 3 this week
no commentswrite comment
1 2 3 4 5
1 last vote to show rating
add to favorites
×
Save as Personal and add changes to this tab that will be seen only by you. Learn more ›
×
You can save this tab as Personal to edit and correct it or add notes. All changes will be seen only by you. Learn more »
launch autoscroll
font size
0
reset
how to read this tab
guitar tuner
edit
Autoscroll
slow
fast
+/-
esc
set tempo
stop
The three tracks were played together as a medley 
In an acoustic session here: https://www.youtube.com/watch?v=NuexN8mEdhQ
Did my best to bring it down to one guitar

1.Suburbia
[Intro]
(Originally piano, rewritten for guitar)
D#|-----------------------2---------------------------------------------------|
A#|-------------------4-----------4---2-------0-2-----------------------------|
F#|-------3-----3-------------------------------------------------------------|
C#|---4-----4---4-------------4-----------4-----------------------------------|
G#|-2---2-----2-2-------------------------------------------------------------|
D#|-------------------------0-----------2-------------------------------------|

[Verse]

D#|---------------------------------------------------------------------------|
A#|---------------------------------------------------------------------------|
F#|-4-----------------------4-----------4-------------------------------------|
C#|-4-----------------------4-----------4-------------------------------------|
G#|-2-----------------------x-----------x-------------------------------------|
D#|-------------------------0-----------2-------------------------------------|        
  The bowling alley...

D#|---------------------------------------------------------------------------|
A#|---------------------------------------------------------------------------|
F#|-4-----------------------4-----------4-4-4-4-4-4---------------------------|
C#|-4-----------------------4-----------4-4-4-4-4-4---------------------------|
G#|-2-----------------------x-----------x-x-x-x-x-x---------------------------|
D#|-------------------------0-----------2-2-2-2-2-2---------------------------|
PM                                      * * * * * * 
  Almost believed it...

D#|---------------------------------------------------------------------------|
A#|---------------------------------------------------------------------------|
F#|-4-----------4-----4-----4-----------4-------------------------------------|
C#|-4-----------4-----4-----4-----------4-------------------------------------|
G#|-2-----------x-----x-----x-----------x-------------------------------------|
D#|-------------4-----2-----0-----------2-------------------------------------|                             
  This is where you...

D#|---------------------------------------------------------------------------|
A#|---------------------------------------------------------------------------|
F#|-4-----------4-----4-----4-----------4-4-4-4-4-4---------------------------|
C#|-4-----------4-----4-----4-----------4-4-4-4-4-4---------------------------|
G#|-2-----------x-----x-----x-----------x-x-x-x-x-x---------------------------|
D#|-------------4-----2-----0-----------2-2-2-2-2-2---------------------------|
PM                                      * * * * * *
  The guy that played Leatherface

[Chorus]

D#|---------------------------------------------------------------------------|
A#|---------------------------------------------------------------------------|
F#|-4-4-4-4-4-4-4-4-4-4-4-4-4-4-4-4-4-4-4-4-4-4-4-4---------------------------|
C#|-4-4-4-4-4-4-4-4-4-4-4-4-4-4-4-4-4-4-4-4-4-4-4-4---------------------------| x2
G#|-2-2-2-2-2-2-x-x-x-x-x-x-x-x-x-x-x-x-x-x-x-x-x-x---------------------------|
D#|-------------4-4-4-2-2-2-0-0-0-0-0-0-2-2-2-2-2-2---------------------------|
  1.Every buisness...
  2.The whole town feels dead...

2. I've Given You All
[Intro]
D#|----------------------------------------------------------------------------|
A#|----------------------------------------------------------------------------|
F#|-4--4-4-4--4-4-4--4-4-4--4-4-4--4-4-4--4-4-4--4-4-4--4-4--------------------|
C#|-4--4-4-4--4-4-4--4-4-4--4-4-4--4-4-4--4-4-4--4-4-4--4-4--------------------| (x2)
G#|-2--2-2-2--2-2-x--x-x-x--x-x-x--x-x-x--x-x-x--x-x-x--x-x--------------------|
D#|---------------4--4-4-2--2-2-0--0-0-0--0-0-2--2-2-2--2-2--------------------|

[Verse]
D#|----------------------------------------------------------------------------|
A#|----------------------------------------------------------------------------|
F#|-4--4-4-4--4-4-4--4-4-4--4-4-4--4-4-4--4-4-4--4-4-4--4-4--------------------|
C#|-4--4-4-4--4-4-4--4-4-4--4-4-4--4-4-4--4-4-4--4-4-4--4-4--------------------| (x2)
G#|-2--2-2-2--2-2-x--x-x-x--x-x-x--x-x-x--x-x-x--x-x-x--x-x--------------------|
D#|---------------4--4-4-2--2-2-0--0-0-0--0-0-2--2-2-2--2-2--------------------|
  1. This town has only had....
  2. homeless man....
   
[Chorus]
D#|-2--2-2-2--2-2-4--4-4-4--4-4-0--0-0-0--0-0-2--2-2-2--2-2-------------------|
A#|-2--2-2-2--2-2-5--5-5-5--5-5-0--0-0-0--0-0-2--2-2-2--2-2-------------------|
F#|-4--4-4-4--4-4-6--6-6-6--6-6-1--1-1-1--1-1-3--3-3-3--3-3-------------------|
C#|-4--4-4-4--4-4-6--6-6-6--6-6-2--2-2-2--2-2-4--4-4-4--4-4-------------------| (x2)
G#|-2--2-2-2--2-2-4--4-4-4--4-4-2--2-2-2--2-2-4--4-4-4--4-4-------------------|
D#|-----------------------------0--0-0-0--0-0-2--2-2-2--2-2-------------------|
  1. He was a....
  2. The cops all said...

[Verse]
D#|----------------------------------------------------------------------------|
A#|----------------------------------------------------------------------------|
F#|-4--4-4-4--4-4-4--4-4-4--4-4-4--4-4-4--4-4-4--4-4-4--4-4--------------------|
C#|-4--4-4-4--4-4-4--4-4-4--4-4-4--4-4-4--4-4-4--4-4-4--4-4--------------------| (x2)
G#|-2--2-2-2--2-2-x--x-x-x--x-x-x--x-x-x--x-x-x--x-x-x--x-x--------------------|
D#|---------------4--4-4-2--2-2-0--0-0-0--0-0-2--2-2-2--2-2--------------------|
  1. Trying...
  2. ever did...

D#|----------------------------------------------------------------------------|
A#|----------------------------------------------------------------------------|
F#|-4--4-4-4--4-4-4--4-4-4--4-4-4--4-4-4--4-4-4--4-4-4--4-4--------------------|
C#|-4--4-4-4--4-4-4--4-4-4--4-4-4--4-4-4--4-4-4--4-4-4--4-4--------------------| (x2)
G#|-2--2-2-2--2-2-x--x-x-x--x-x-x--x-x-x--x-x-x--x-x-x--x-x--------------------|
D#|---------------4--4-4-2--2-2-0--0-0-0--0-0-2--2-2-2--2-2--------------------|
  1. It's a sober sight...
  2. Goodwill bikes...

[Chorus]
D#|-2--2-2-2--2-2-4--4-4-4--4-4-0--0-0-0--0-0-2--2-2-2--2-2-------------------|
A#|-2--2-2-2--2-2-5--5-5-5--5-5-0--0-0-0--0-0-2--2-2-2--2-2-------------------|
F#|-4--4-4-4--4-4-6--6-6-6--6-6-1--1-1-1--1-1-3--3-3-3--3-3-------------------|
C#|-4--4-4-4--4-4-6--6-6-6--6-6-2--2-2-2--2-2-4--4-4-4--4-4-------------------| (x2)
G#|-2--2-2-2--2-2-4--4-4-4--4-4-2--2-2-2--2-2-4--4-4-4--4-4-------------------|
D#|-----------------------------0--0-0-0--0-0-2--2-2-2--2-2-------------------|
  1. Wearing starter jackets....
  2. With discouraged faces....

[Outro]
D#|----|
A#|----|
F#|-4~-|
C#|-4~-|
G#|-2~-|
D#|----|
  Man, I'm sorry.
  (In video, Casey plays the intro again instead of letting it ring out
  If you want to play all three songs together, i suggest doing that)

3. And Now I'm Nothing
(This song has 2 guitars and a piano but i tried my best to bring it down to one)

[Intro]
(Rythym for the intro and verses is extremley difficult, but tried my best to tab it)
D#|-------------------------------------------------------------|
A#|-------------------------------------------------------------|
F#|-4---4-4---4-4---4-4-4---4-4--4-4---4-4---4-4-4--------------|
C#|-4---4-4---4-4---4-4-4---4-4--4-4---4-4---4-4-4--------------| x2
G#|-x---x-x---x-x---x-x-x---x-x--x-x---x-x---x-x-x--------------|
D#|-0---0-0---0-0---0-0-0---0-4--4-4---4-2---2-2-2--------------| 

[Verse]
D#|-------------------------------------------------------------|
A#|-------------------------------------------------------------|
F#|-4---4-4---4-4---4-4-4---4-4--4-4---4-4---4-4-4--------------|
C#|-4---4-4---4-4---4-4-4---4-4--4-4---4-4---4-4-4--------------| x8
G#|-x---x-x---x-x---x-x-x---x-x--x-x---x-x---x-x-x--------------|
D#|-0---0-0---0-0---0-0-0---0-4--4-4---4-2---2-2-2--------------| 
 1. I can't help myself...
 2. I keep ending up...  
  (And so on)
 8. I won't end up...

D#|-----------------------------------------------------------------|
A#|-----------------------------------------------------------------|
F#|-4---------------4-4-4-4-4-4-4-4-4-4-4-4-4-4-4-------------------|
C#|-4---------------4-4-4-4-4-4-4-4-4-4-4-4-4-4-4-------------------| 
G#|-2---------------2-2-2-x-x-x-x-x-x-x-x-x-x-x-x-------------------|
D#|-----------------------4-4-4-4-4-4-2-2-2-2-2-2-------------------|
  Snow...
D#|-----------------------------------------------------------------|
A#|-----------------------------------------------------------------|
F#|-4-4-4-4-4-4-4-4-4-4-4-4-4-4-4-4-4-4-4-4-4-4-4-------------------|
C#|-4-4-4-4-4-4-4-4-4-4-4-4-4-4-4-4-4-4-4-4-4-4-4-------------------| 
G#|-2-2-2-2-2-2-2-2-2-2-2-x-x-x-x-x-x-x-x-x-x-x-x-------------------|
D#|-----------------------4-4-4-4-4-4-2-2-2-2-2-2-------------------|
  Snow...

[Verse]
D#|-------------------------------------------------------------|
A#|-------------------------------------------------------------|
F#|-4---4-4---4-4---4-4-4---4-4--4-4---4-4---4-4-4--------------|
C#|-4---4-4---4-4---4-4-4---4-4--4-4---4-4---4-4-4--------------| x4
G#|-x---x-x---x-x---x-x-x---x-x--x-x---x-x---x-x-x--------------|
D#|-0---0-0---0-0---0-0-0---0-4--4-4---4-2---2-2-2--------------| 
 1. This is...
 2. The manger scene...
 3. The canon...
 4. Every year..

[Post-verse]
(This part might be off)
D#|----------------------------------------------------------|
A#|----------------------------------------------------------|
F#|-4-4---4--4-2-2--------4-4---4--4-4-4---------4-----------|
C#|-4-4---4--4-2-2--------4-4---4--4-4-4---------4-----------| x2
G#|-2-2---2--2-0-0--------x-x---x--x-x-x---------x-----------|
D#|-----------------------4-4---4--4-2-2---------0-----------|
 1.Stops them...
 2.It's a nice...

[Chorus]
(also might be off)

D#|-----------------------------------------------|
A#|-----------------------------------------------|
F#|-4-4-----4--4--4-4-----2-2-----2--2--1-1-------|
C#|-4-4-----4--4--4-4-----2-2-----2--2--2-2-------| x2
G#|-2-2-----2--2--2-2-----0-0-----0--0--2-2-------|
D#|-------------------------------------0-0-------|
 1. I'll put my life...
 2. Suburbia..

[Verse]
(The 5th-8th time the strumming pattern is different, but not hard to figure out. it's the same chords)
D#|-------------------------------------------------------------|
A#|-------------------------------------------------------------|
F#|-4---4-4---4-4---4-4-4---4-4--4-4---4-4---4-4-4--------------|
C#|-4---4-4---4-4---4-4-4---4-4--4-4---4-4---4-4-4--------------| x8
G#|-x---x-x---x-x---x-x-x---x-x--x-x---x-x---x-x-x--------------|
D#|-0---0-0---0-0---0-0-0---0-4--4-4---4-2---2-2-2--------------| 
 1. So I moved myself...
 2. Two boxes of things...
 5. Cause I've been in search

 [Post-vers]
D#|-----------------------------------------------|
A#|-----------------------------------------------|
F#|--------4---------4-----4-------4---------4-4~-|
C#|---4------4-----4-----4-----4-----4-----4---4~-| 
G#|-2---2------2-------------2---2-----2-------x--|
D#|--------------4-----2-----------------4-----2~-|
  Alone...

[Chorus]
D#|-----------------------------------------------|
A#|-----------------------------------------------|
F#|-4-4-----4--4--4-4-----2-2-----2--2--1-1-------|
C#|-4-4-----4--4--4-4-----2-2-----2--2--2-2-------| x4
G#|-2-2-----2--2--2-2-----0-0-----0--0--2-2-------|
D#|-------------------------------------0-0-------|
 1. I'll put my life...
 2. Suburbia..
 3. Suburbia..
 4. Sububria..

[Verse]
D#|-------------------------------------------------------------|
A#|-------------------------------------------------------------|
F#|-4---4-4---4-4---4-4-4---4-4--4-4---4-4---4-4-4--------------|
C#|-4---4-4---4-4---4-4-4---4-4--4-4---4-4---4-4-4--------------| x12
G#|-x---x-x---x-x---x-x-x---x-x--x-x---x-x---x-x-x--------------|
D#|-0---0-0---0-0---0-0-0---0-4--4-4---4-2---2-2-2--------------| 
  First 4 times is just instrumental
  Ends with "...to the wheel"
  
(The acoustic version ends here, the version on the album has the outro)
[Outro]

D#|---------------------------------------------------------------------------|
A#|---------------------------------------------------------------------------|
F#|-4-4-4-4-4-4-6-6-6-6-6-6---------------------------------------------------|
C#|-4-4-4-4-4-4-6-6-6-6-6-6-2-2-2-2-2-2-4-4-4-4-4-4---------------------------| (x4)
G#|-2-2-2-2-2-2-4-4-4-4-4-4-2-2-2-2-2-2-4-4-4-4-4-4---------------------------|
D#|-------------------------0-0-0-0-0-0-2-2-2-2-2-2---------------------------|

D#|---------------------------------------------------------------------------|
A#|---------------------------------------------------------------------------|
F#|-4-4-4-4-4-4-6-6---6-6-6---------------------------------------------------|
C#|-4-4-4-4-4-4-6-6---6-6-6-2-2-2-2-2-2-4-4---4-4-4---------------------------| (x2)
G#|-2-2-2-2-2-2-4-4---4-4-4-2-2-2-2-2-2-4-4---4-4-4---------------------------|
D#|-------------------------0-0-0-0-0-0-2-2---2-2-2---------------------------|

D#|---------------------------------------------------------------------------|
A#|---------------------------------------------------------------------------|
F#|-4-4-4-4-4-4-6-6-6-6-6-6---------------------------------------------------|
C#|-4-4-4-4-4-4-6-6-6-6-6-6-2-2-2-2-2-2-4-4-4-4-4-4---------------------------| (x2)
G#|-2-2-2-2-2-2-4-4-4-4-4-4-2-2-2-2-2-2-4-4-4-4-4-4---------------------------|
D#|-------------------------0-0-0-0-0-0-2-2-2-2-2-2---------------------------|

D#|------------------------|
A#|------------------------|
F#|-6\4--6\4--9\8--8\6-----|
C#|-x-x--x-x--x----x-------| (x4)
G#|-4\2--4\2--7\6--6\4-----|
D#|------------------------|
 I can't figure out the last guitar part so help would be appreciated!
Suggest correction
Creating personal tab
Creating personal tab
You can edit any tab online and save it as your Personal.

You can edit, replace or remove any tab part or add personal notes – all changes will be seen only by you.

Personal tabs can be accessed anytime from any device, even offline.
Learn more »
Give kudos to tab author, rate the tab!
1 2 3 4 5
comments
print report bad tab
guest
You may want to rate the tab now too:
select rating
Wanna post a correction for this tab? Suggest correction