Oops, an error
Loading. Please wait.

The Bastards The Vultures The Wolves Tab

3,336 views 9 this week
no commentswrite comment
1 2 3 4 5
x 6
add to favorites
launch autoscroll
font size
0
reset
how to read this tab
guitar tuner
Autoscroll
slow
fast
+/-
esc
set tempo
stop
Help us to improve Ultimate-Guitar.com Take our survey!
×
Author
Difficulty
Tuning
intermediate
C# G# C# F# A# D#
Intro
D#-0~~~~~~~------------------------|
A#-0~~~~~~~8~~~~~~~8~~~~~~~----0~~~|
F#-5~~~~~~~0~~~~~~~9~~~~~~~5~~~4~~~|
C#-7~~~~~~~9~~~~~~~9~~~~~~~7~~~5~~~|
G#-8~~~~~~~7~~~~~~~0~~~~~~~8~~~7~~~|
C#-6~~~~~~~----------------6~~~6~~~|

'I'm angry like I'm eighteen again...'
Rhythm
D#-----------------------------------------------------------------|
A#-----------------------------------------------------------------|
F#-2222222222222222------------------------------------------------| X2
C#-2222222222222222222222222222222233333333333333335555555555555555|
G#-0000000000000000222222222222222233333333333333335555555555555555|
C#-----------------222222222222222233333333333333335555555555555555|

Lead (really fast struming)
D#---------------------------------------------------------------------------|
A#---------------------------------------------------------------------------|
F#-999999~9~999999~9~999999~9~99999975-999999~9~999999~9~999999~9~-----------| X2
C#-999999~9~999999~9~999999~9~99999975-999999~9~999999~9~999999~9~555555~5-5^| (bend the string)
G#-777777~7~777777~7~777777~7~77777753-777777~7~777777~7~777777~7~555555~5---|
C#----------------------------------------------------------------555555~5---|

'So bury me at sea...'
D#---------------------------------------------------------|
A#---------------------------------------------------------|
F#---------------------------------------------------------| X2
C#-99999999101010101010101012121212121212121212121212121212|
G#-777777778-8-8-8-8-8-8-8-10101010101010101010101010101010|
C#---------------------------------------------------------|
PM-********************************************************|

'I'm waking up to gospel radio...'
Rhythm
D#---------------------------------|
A#---------------------------------|
F#-55555555------------------------| X2
C#-55555555222222223333333355555555|
G#-33333333222222223333333355555555|
C#---------222222223333333355555555|

'I'm wondering where you would be without me...'
Rhythm
D#-----------------------------------------------------------------|
A#-----------------------------------------------------------------|
F#-2222222255555555----------------2222222255555555----------------|
C#-2222222255555555333333333333333322222222555555555555555555555555|
G#-0000000033333333333333333333333300000000333333335555555555555555|
C#-----------------3333333333333333----------------5555555555555555|

The lead is very drowned out in this song so I can't tab it out, I'm sorry :(

Pre-Verse
D#-----------------------------------------------------------------|
A#-----------------------------------------------------------------|
F#---------2~~~~~~~------------------------------------------------|
C#---------2~~~~~~~--------2~~~~~~~3~~~~~~~3~~~~~~~----------------|
G#---------0~~~~~~~--------2~~~~~~~3~~~~~~~3~~~~~~~5555555555555555|
C#-------------------------2~~~~~~~3~~~~~~~3~~~~~~~5555555555555555|
PM-------------------------------------------------****************|

'I know I was an angry kid...'
Rhythm
D#----------------------------------------------------------------|
A#----------------------------------------------------------------|
F#---2---2---2---2------------------------------------------------| X2
C#-2222222222222222--2---2---2---2-3~3~----3~3~------5---5---5---5|
G#-000000000000000022222222222222223~3~33333~3~3333555555555555555|
C#-----------------22222222222222223~3~33333~3~3333555555555555555|
PM-**-***-***-***-***-***-***-***-*----****----******-***-***-***-|

'So bury me at sea...'
D#---------------------------------|
A#---------------------------------|
F#---------------------------------| X2
C#-2~~~~~~~3~~~~~~~5~~~~~~~~~~~~~~~|
G#-2~~~~~~~3~~~~~~~5~~~~~~~~~~~~~~~|
C#-2~~~~~~~3~~~~~~~5~~~~~~~~~~~~~~~|

'I'm waking up to gospel radio...'
Rhythm
D#---------------------------------|
A#---------------------------------|
F#-55555555------------------------| X2
C#-55555555222222223333333355555555|
G#-33333333222222223333333355555555|
C#---------222222223333333355555555|

'I'm wondering where you would be without me...'
D#-----------------------------------------------------------------|
A#-----------------------------------------------------------------|
F#-2222222255555555----------------2222222255555555----------------|
C#-2222222255555555333333333333333322222222555555555555555555555555|
G#-0000000033333333333333333333333300000000333333335555555555555555|
C#-----------------3333333333333333----------------5555555555555555|

Bridge
Lead
D#------0~~-----0~~-----0~~-----0~~|
A#---0~~-----0~~-----0~~-----0~~~~~|
F#--5~0~~~~-5~0~~~~-5~0~~~~-0~7~~7~|
C#-7~~~7~~~5~~~5~~~7~~~7~~~5~~~5~~5|
G#---------------------------------|
C#---------------------------------|

Second Lead
D#-----------------------------------|
A#-8~~~~~~~10~~~8~~~5~~~12~~~8~~~~~~~|
F#-----------------------------------|
C#-----------------------------------|
G#-----------------------------------|
C#-----------------------------------|

'Jake says I've got good intentions...'
Lead
D#------0~~-----0~~-----0~~-----0~~|
A#---0~~-----0~~-----0~~-----0~~~~~|
F#--5~0~~~~-5~0~~~~-5~0~~~~-0~7~~7~| X2
C#-7~~~7~~~5~~~5~~~7~~~7~~~5~~~5~~5|
G#---------------------------------|
C#---------------------------------|

Second Lead (comes in the second time around)
D#-----------------------------------|
A#-8~~~~~~~10~~~8~~~5~~~12~~~8~~~~~~~|
F#-----------------------------------|
C#-----------------------------------|
G#-----------------------------------|
C#-----------------------------------|

'I came here looking for a fight...'
Rhythm
D#---------------------------------------------------------|
A#---------------------------------------------------------|
F#---------------------------------5555555555555555--------|
C#-3333333333333333555555555555555555555555555555552-------|
G#-3333333333333333555555555555555533333333333333332-------|
C#-33333333333333335555555555555555----------------2-------|

D#---------------------------------------------------------|
A#---------------------------------------------------------|
F#---------------------------------5555555555555555--------| X3
C#-33333333333333335555555555555555555555555555555522222222|
G#-33333333333333335555555555555555333333333333333322222222|
C#-33333333333333335555555555555555----------------22222222|

D#-------------------------------------------------------------------------|
A#-------------------------------------------------------------------------|
F#---------------------------------5555555555555555------------------------|
C#-3333333333333333555555555555555555555555555555552-------3~~~~~~~~~~~~~~~|
G#-3333333333333333555555555555555533333333333333332-------3~~~~~~~~~~~~~~~|
C#-33333333333333335555555555555555----------------2-------3~~~~~~~~~~~~~~~|

Second Rhythm
D#-----------------------------------------------------------------------------------------|
A#-----------------------------------------------------------------------------------------|
F#-101010101010101010101010101010107777777777777777121212121212121212121212121212129-------|
C#-xxxxxxxxxxxxxxxxxxxxxxxxxxxxxxxxxxxxxxxxxxxxxxxxxxxxxxxxxxxxxxxxxxxxxxxxxxxxxxxxx-------|
G#-8-8-8-8-8-8-8-8-8-8-8-8-8-8-8-8-5555555555555555101010101010101010101010101010107-------|
C#-----------------------------------------------------------------------------------------|

D#-----------------------------------------------------------------------------------------|
A#-----------------------------------------------------------------------------------------|
F#-1010101010101010101010101010101077777777777777771212121212121212121212121212121299999999| X3
C#-xxxxxxxxxxxxxxxxxxxxxxxxxxxxxxxxxxxxxxxxxxxxxxxxxxxxxxxxxxxxxxxxxxxxxxxxxxxxxxxxxxxxxxxx|
G#-8-8-8-8-8-8-8-8-8-8-8-8-8-8-8-8-55555555555555551010101010101010101010101010101077777777|
C#-----------------------------------------------------------------------------------------|

D#---------------------------------------------------------------------------------|
A#---------------------------------------------------------------------------------|
F#-10101010101010101010101010101010777777777777777712121212121212121212121212121212|
C#-xxxxxxxxxxxxxxxxxxxxxxxxxxxxxxxxxxxxxxxxxxxxxxxxxxxxxxxxxxxxxxxxxxxxxxxxxxxxxxxx|
G#-8-8-8-8-8-8-8-8-8-8-8-8-8-8-8-8-555555555555555510101010101010101010101010101010|
C#---------------------------------------------------------------------------------|

Lead (I could figure out the last full messure because the guitar is too distorted to 
hear the notes)
D#-------------------------------------------------------------------------|
A#-------------------------------------------------------------------------|
F#-------------------------------------------------------------------------|
C#-5555555555555555333333333333333322222222222222222-------3~~~~~~~~~~~~~~~|
G#-------------------------------------------------2-------3~~~~~~~~~~~~~~~|
C#-------------------------------------------------2-------3~~~~~~~~~~~~~~~|
Suggest correction
comments
print report bad tab
guest
You may want to rate the tab now too:
select rating
Wanna post a correction for this tab? Suggest correction