Oops, an error
Loading. Please wait.

The Devil In My Bloodstream bass

version 1
version 1

Whole song

Interactive

1,348 views 3 this week
4 commentsread comments
1 2 3 4 5
x 5
add to favorites
×
Save as Personal and add changes to this tab that will be seen only by you. Learn more ›
×
You can save this tab as Personal to edit and correct it or add notes. All changes will be seen only by you. Learn more »
launch autoscroll
font size
0
reset
guitar tuner
edit
Autoscroll
slow
fast
+/-
esc
set tempo
stop
Author
< = x8

Verse

G|-----------------------------------------|
D|-----------------------------------------|
A|---5~------2~-----------0~---------------|
E|--------------------3~-------------------|
                    X2

Pre chorus
(Start of each chord)
G|-----------------------------------------------------------------------------------|
D|-----------------------------------------------------------------------------------|
A|-5~----------------0~---------2~-----0~--------------------------------------------|
E|------------------------------------------------3~----------|    ----> A|---0~-----|
    I just wanted to see just a little bit of everything

Chorus

G|---------------------------------------------|
D|---------------------------------------------|      x2
A|----5~-----------2~------0~------------------|
E|-----------3~--------------------------------|

G|-------------------------------------------------------------------|
D|-------------------------------------------------------------------|
A|-----2~-------5~-----------------5~--------0~----------------------|
E|---------------------------3~--------------------------3~----------|

Verse 2

G|-------------------------------------|
D|-------------------------------------|
A|---5~-----2~--------0~---------------|
E|-----------------3~------------------|

Come in on "coward.."

G|------------------------------------------------------|
D|------------------------------------------------------|
A|--5<5<---2<2<-------------0<0<------------------------|
E|-----------------------3<3<---------------------------|

G|-----------------------------------|
D|-----------------------------------|
A|-5<--0<---2~---0~------------0<0<--|hold notes when Soupy starts singing "please"
E|-------------------------3<3<------|

Chorus

G|-----------------------|
D|-----------------------|
A|----5<--------2<---0<--| X2 (They might not be in eights,
E|---------3<------------|        Just play how many times you think fits)

"I wanna be strong.."
G|------------------------------------------------------|
D|------------------------------------------------------|
A|--2<---5<------------5<---0<--------------------------|
E|--------------3<3<--------------x3
                

            
            
Suggest correction
Creating personal tab
Creating personal tab
You can edit any tab online and save it as your Personal.

You can edit, replace or remove any tab part or add personal notes – all changes will be seen only by you.

Personal tabs can be accessed anytime from any device, even offline.
Learn more »
comments
print report bad tab
4 comments total. Showing first comments.
0 reply
edward-59 10 Sep 02, 2013 11:20 AM

Good tab but tuning is half step down!

0 reply
Surry69 294 Sep 08, 2013 01:37 AM

The tab got cut short for some reason, here's the rest

"I wanna be strong.."
G|---------------------------------------------------|
D|----------------------------------------------------|
A|--2<---5<------------5<---0<-------------------|
E|--------------3<3<--------------x3<x3<x------|

Bridge " I know how it feels..."

G|----------------------|
D|-----------------------|
A|-5<---0<------------| X2
E|-------------3<3<---|

Final Chours

G|---------------------------|
D|---------------------------|
A|-5<---------2<----0<---| X2
E|-------3<-----------------|

G|---------------------------------------------------------------|
D|---------------------------------------------------------------|
A|-----------------2~----------5~------------------------------|
E|-------------------------------------------3~-----------------|
I wanna be strong

G|-----------------------------------------------|
D|-----------------------------------------------|
A|------------------5~---------------0~-------|
E|----------------------------------------------|
I wanna be strong

G|----------------------------------------|
D|----------------------------------------|
A|----------------------------------------|
E|---------------3~---------------------|
But it's not easy anymore...

0 reply
XxThreeCheersxX 13,177 Jul 20, 2015 06:34 PM

Lack of formatting. Lack of accuracy. Clearly wrong. none of the fills are present, there's no bass during the first verse, the second verse is wrong, and there's some formatting issues

guest
You may want to rate the tab now too:
select rating
Wanna post a correction for this tab? Suggest correction