Oops, an error
Loading. Please wait.

The Devil In My Bloodstream bass

version 2
version 2

Whole song

Interactive

190 views 3 this week
no commentswrite comment
1 2 3 4 5
2 more votes to show rating
add to favorites
×
Save as Personal and add changes to this tab that will be seen only by you. Learn more ›
×
You can save this tab as Personal to edit and correct it or add notes. All changes will be seen only by you. Learn more »
launch autoscroll
font size
0
reset
guitar tuner
edit
Autoscroll
slow
fast
+/-
esc
set tempo
stop
The Wonder Years - The Devil In My Bloodstream

Tabbed by: Ashy (XxthreecheersxX)
E-mail: burdickash@gmail.com

Tuning: drop c# (C# G# C# F#)

Verse I (no bass)

Pre-Chorus (after "Just a little bit of anything")
F#|---------------------------------------------|
C#|-------------5~--------------------7~--------|
G#|-------5~--------------------7~--------------|
C#|-5~--------------------7~--------------------|

Chorus ("Two blackbirds on a highway sign")
F#|-----------------------------------------------------------------------------------------|
C#|-----------7-5~-------------------------7-5-4-------------7-5~---------------------------|
G#|-5~------5------------------------------------7-5~------5--------------------------------|
C#|-----------------------9~------9--7~---------------------------------9~--------7~--------|

"I want to be strong.... but it's not easy anymore..."
F#|-------------------------------------------------------------------------------|
C#|-------------------------------------------------------------------------------|
G#|-----------------------------------------5~------------------------------------|
C#|-9~--------/12~--------5~--------------------------7~--------5~----------------|

Verse II
F#|------------------------------------------------------------------------------------------------------|
C#|-------7~----7-------7-----------4~------------4~---------------5-----------5-----------7--7~---------|
G#|-5~------------5~-------5--2~------------2~---------(2)------5-----------5-----------7-------------7--|
C#|--------------------------------------------------------5~----------5~----------7~--------------------|

F#|------------------------------------------------------------------------------------------------------|
C#|-------7~----7-------7-----------4~----2-------4~---------------5-----------5-----------7--7~---------|
G#|-5~------------5~-------5--2~------------2~---------(2)------5-----------5-----------7----------------|
C#|--------------------------------------------------------5~----------5~----------7~--------------------|

"I bet I'd be a fucking coward"
F#|-----------------------------------------------------------------|
C#|-----------------------------------------------------------------|
G#|-5-5-5-5-5-5-5-5-5-5-5-5-5-5-5-5---------------------------------|
C#|---------------------------------9-9-9-9-9-9-9-9-9-9-9-9-9-9-9-9-|

F#|-----------------------------------------------------------------|
C#|-----------------------------------------------------------------|
G#|-----------------------------------------------------------------|
C#|-5-5-5-5-5-5-5-5-5-5-5-5-5-5-5-5-7-7-7-7-7-7-7-7-7-7-7-7-7-7-7-7-|

"And I wanna know, can I please come home..." (if you don't have a 21st fret just ignore the slide)
F#|-----------------------------------------------------------------------------------------|
C#|-----------------------------------------------------------------------------------------|
G#|-----------------------------------------------------------------------------------------|
C#|-5-5-5-5-5-5-5-5-7-7-7-7-7-7-7-7-9~----/21~----7~--------5-5-5-5-5-5-5-5-5-5-5-5-5-5-5-5-|

F#|---------------------------------|
C#|---------------------------------|
G#|---------------------------------|
C#|-7-7-7-7-7-7-7-7-7-7-7-7-7-7-7-7-|

Chorus II
F#|-----------------------------------------------------------------|
C#|---------------------------------------------------------7-5-4---|
G#|-5-5-5-5-5-5-5-5-----------------------------------------------7-|
C#|-----------------5-5-5-5-5-5-5-5-9-9-9-9-9-9-9-9-7-7-7-7---------|

F#|-----------------------------------------------------------------|
C#|-----------------------------------------------------------------|
G#|-5-5-5-5-5-5-5-5-------------------------------------------------|
C#|-----------------5-5-5-5-5-5-5-5-9-9-9-9-9-9-9-9-7-7-7-7-7-7-7-7-|

F#|-----------------------------------------------------------------|
C#|-----------------------------------------------------------------|
G#|-----------------5-5-5-5-5-5-5-5---------------------------------|
C#|-9-9-9-9-9-9-9-9-----------------5-5-5-5-5-5-5-5-5-5-5-5-5-5-5-5-|

F#|-------------------------------------------------------------------|
C#|-------------------------------------------------------------------|
G#|-5-5-5-5-5-5-5-5-5-------------------------------------------------|
C#|-------------------7-7-7-7-7-7-7-7-5-5-5-5-5-5-5-5-5-5-5-5-5x--5x--|

"I know how it feels to be at war with a world that never loved me"
F#|-------------------------------------------------------------------|
C#|-------------------------------------------------------------------|
G#|-5-5-5-5-5-5-5-5-5-------------------------------------------------| x 2
C#|-------------------7-7-7-7-7-7-7-7-5-5-5-5-5-5-5-5-5-5-5-5-5-5-5-5-|

F#|-----------------------------------------------------------------|
C#|---------------------------------------------------------7-5-4---|
G#|-5-5-5-5-5-5-5-5-----------------------------------------------7-|
C#|-----------------5-5-5-5-5-5-5-5-9-9-9-9-9-9-9-9-7-7-7-7---------|

F#|-----------------------------------------------------------------|
C#|-----------------------------------------------------------------|
G#|-5-5-5-5-5-5-5-5-------------------------------------------------|
C#|-----------------5-5-5-5-5-5-5-5-9-9-9-9-9-9-9-9-7-7-7-7-7-7-7-7-|

Outro (no bass)

Happy playing!

| /  slide up
| \  slide down
| h  hammer-on
| p  pull-off
| ~  vibrato
| +  harmonic
| x  Mute note
===============================================================================
Suggest correction
Creating personal tab
Creating personal tab
You can edit any tab online and save it as your Personal.

You can edit, replace or remove any tab part or add personal notes – all changes will be seen only by you.

Personal tabs can be accessed anytime from any device, even offline.
Learn more »
Give kudos to tab author, rate the tab!
1 2 3 4 5
comments
print report bad tab
guest
You may want to rate the tab now too:
select rating
Wanna post a correction for this tab? Suggest correction