Oops, an error
Loading. Please wait.

Woke Up Older Bass Tab

2,918 views 3 this week
no commentswrite comment
1 2 3 4 5
please rate
add to favorites
launch autoscroll
font size
0
reset
guitar tuner
Tab Pro tools
  • play this tab
  • loop segment
  • change instrument
  • show fretboard
  • metronome
×
Best way to learn
"Woke Up Older"
Autoscroll
slow
fast
+/-
esc
set tempo
stop
Contributor
Difficulty
Tuning
intermediate
C# G# C# F# A# D#
(/) Slide Up  (\) Slide Down  (h) Hammer On  (p) Pull Off  (b) Bend (r) Release (v) Vibrato

Intro [x3]


G|--------------------------------------------------------------------------------------------|
D|--------------------------------------3--3--------------------------------------------------|
A|--1--1--1--5--5--5--3--3--3--1--3--3--------3--3--1--1--1--5--5--5--3--3--3--3--3--3--3--3--|
E|--------------------------------------------------------------------------------------------|

Verse [x4]


G|--------------------------------------------------|
D|--------------------------------------------------|
A|--1--1--1--1--1--1--1--1--1--1--1--1--3--3--5--5--|
E|--------------------------------------------------|




G|--------------------------------------------------|
D|--------------------------------------------------|
A|--------------------------------------5--5--3--3--|
E|--3--3--3--3--3--3--3--3--3--3--3--3--------------|


Pre-Chorus (...you said you needed a stiff drink)

G|-----------------------------------------------------------------------------------------|
D|-----------------------------------------------------------------------------------------|
A|--------------------------------------------------1--1--1--1--1--1--1--1--1--1--1--1--1--|
E|--5--5--5--5--5--5--5--5--5--5--5--5--5--5--5--5-----------------------------------------|


G|--------------------------------------------------------------------------------------------|
D|--------------------------------------------------------------------------------------------|
A|--------------------------------------------------1--1--1--1--1--1--1--1--3--3--3--3--3--3--|
E|--5--5--5--5--5--5--5--5--5--5--5--5--5--5--5--5--------------------------------------------|



Chorus (Hey Jess...)

G|--------------------------------------------------------------------------------------|
D|--------------------------------------------------------------------------------------|
A|--------------3--3--3--3--3--3--3--3--------------------------1--1--1--1--1--1--1--1--|
E|--3--3--3--3--------------------------5--5--5--5--5--5--5--5--------------------------|


G|-----------------------------------------------------------------------------------------|
D|-----------------------------------------------------------------------------------------|
A|--------------------------3--3--3--3--3--3--3--3--1--1--1--1--1--1--1--1--1--1--1--1--1--|
E|--3--3--3--3--3--3--3--3-----------------------------------------------------------------|



G|--------------------------------------------------------------------------------------|
D|--------------------------------------------------------------------------------------|
A|--------------3--3--3--3--3--3--3--3--------------------------1--1--1--1--1--1--1--1--|
E|--3--3--3--3--------------------------5--5--5--5--5--5--5--5--------------------------|


G|--------------------------------------------------------------------------------------|
D|--------------------------------------------------------------------------------------|
A|--------------------------------------------------1--1--1--1--1--1--1--1--1--1--1--1--|
E|--5--5--5--5--5--5--5--5--5--5--5--5--5--5--5--5--------------------------------------|

Verse 2

G|-----------------------|
D|-----------------------|
A|-----5-----3-----1-----|
E|-----------------------|



G|--------------------------------------------------------------------------------------------|
D|--------------------------------------------------------------------------------------------|
A|--1--1--1--1--1--1--1--1--------------------------1--1--1--1--1--1--1--1--------------------|
E|--------------------------3--3--3--3--3--3--3--3--------------------------3--3--3--3--3--3--|



G|-----------------------------------------------------------------------------------------|
D|-----------------------------------------------------------------------------------------|
A|--5--5--3--3--1--1--1--1--1--1--1--1--1--1--1--1--1--1--1--1-----------------------------|
E|--------------------------------------------------------------3--3--3--3--3--3--3--3--3--|


G|-----------------------------------------------|
D|-----------------------------------------------|
A|--1--1--1--1--1--1--1--1--3--3--3--3--3--3--3--|
E|-----------------------------------------------|


Repeat Pre-Chorus and Chorus


Bridge (When John introduced...)

G|-----------------------|
D|-----------------------|
A|-----5-----3-----8-----|
E|-----------------------|

G|-----------------------|
D|-----------------------|
A|-----5-----7-----1-----|
E|-----------------------|

Bride Part 2 [x2]

G|--------------------------------------------------------------------------------------------|
D|--------------------------------------------------------------------------------------------|
A|--5--5--5--5--5--5--5--5--3--3--3--3--3--3--3--3--8--8--8--8--8--8--8--8--8--8--8--8--8--8--|
E|--------------------------------------------------------------------------------------------|


G|--------------------------------------------------------------------------------------------|
D|--------------------------------------------------------------------------------------------|
A|--5--5--5--5--5--5--5--5--7--7--7--7--7--7--7--7--1--1--1--1--1--1--1--1--1--1--1--1--1--1--|
E|--------------------------------------------------------------------------------------------|

Repeat Intro, Then...

G|-----|
D|-----|
A|-----|
E|---3~|


G|-----------------------|
D|-----------------------|
A|-----------3~-----1~---|
E|-----3~----------------|


Repeat Chorus, then during the refrains (You left the room...)


G|-----------------------------------------------------------------------------------------------|
D|-----------------------------------------------------------------------------------------------|
A|--------------------------------------------------1--1--1--1--1--1--1--1--1--1--1--1--1--1--1--|
E|--5--5--5--5--5--5--5--5--5--5--5--5--5--5--5--5-----------------------------------------------|


End On:

G|--------|
D|--------|
A|-----1~-|
E|--------|
comments
We did not receive enough feedback on this tab! Please rate:
print report bad tab
1 2 3 4 5
I want to post or [tab]
guest
You may want to rate the tab now too:
select rating
Please do not post tabs as comments. Select "correction" instead!