Oops, an error
Loading. Please wait.

Grunge tab

695 views 3 this week
2 commentsread comments
1 2 3 4 5
1 last vote to show rating
add to favorites
×
Save as Personal and add changes to this tab that will be seen only by you. Learn more ›
×
You can save this tab as Personal to edit and correct it or add notes. All changes will be seen only by you. Learn more »
launch autoscroll
font size
0
reset
how to read this tab
guitar tuner
edit
Autoscroll
slow
fast
+/-
esc
set tempo
stop
This just a really rough tab for the rhythm. 


Intro faintly over the motorcycle noises.
D|---------------------------------------------------------------------------|
A|---------------------------------------------------------------------------|
F|---------------------------------------------------------------------------|
C|---------------------------------------------------------------------------|
G|--12-12--12-12--12--12-12--99999-333---------------------------------------|
C|00--0--00--0--00--00--0--00------------------------------------------------|

Intro pt.2/ main riff (0:16)
D|---------------------------------------------------------------------------|
A|---------------------------------------------------------------------------|
F|---------------------------------------------------------------------------|
C|---------------------------------------------------------------------------|
G|0-0---10h12-------------10h12-----------99999-333--------------------------|
C|0-0-0-------0-0-10h12-0--------10h12---------------------------------------|
      *       *          
Verse 1 I can't hear anything besides this.
D|---------------------------------------------------------------------------|
A|---------------------------------------------------------------------------|
F|---------------------------------------------------------------------------|
C|---------------------------------------------------------------------------|
G|--999-333------------------------------------------------------------------|
C|---------------------------------------------------------------------------|

Chorus
D|---------------------------------------------------------------------------|
A|---------------------------------------------------------------------------|
F|---------------------------------------------------------------------------|
C|---------------------------------------------------------------------------|
G|-555555-0-88888888--555555-0-33333333--(x2)--555555-0-8--------------------|
C|-555555-0-88888888--555555-0-33333333--------555555-0-8--------------------|
          *                  *                        *

D|---------------------------------------------------------------------------|
A|---------------------------------------------------------------------------|
F|---------------------------------------------------------------------------|
C|---------------------------------------------------------------------------|
G|0-0---10h12-------------10h12-----------99999-333--------------------------|
C|0-0-0-------0-0-10h12-0--------10h12---------------------------------------|
      *       *          

Repeat the verse 

Chorus
D|---------------------------------------------------------------------------|
A|---------------------------------------------------------------------------|
F|---------------------------------------------------------------------------|
C|---------------------------------------------------------------------------|
G|-555555-0-88888888--555555-0-33333333--(x2)--555555-0-8--------------------|
C|-555555-0-88888888--555555-0-33333333--------555555-0-8--------------------|


Leading up to the breakdown has a panning effect with what sounds like a phaser
D|---------------------------------------------------------------------------|
A|---------------------------------------------------------------------------|
F|---------------------------------------------------------------------------|
C|-n-------------------------------------------------------------------------|
G|-5---repeat-until-the-breakdown--------------------------------------------|
C|---------------------------------------------------------------------------|

Breakdown
D|----------------------------------------------------------------------------------------|
A|----------------------------------------------------------------------------------------|
F|----------------------------------------------------------------------------------------|
C|-------------------------4---------------------------------8-7--------------------------|
G|-------9------------1-------(x3)------9-------------3-1-0--6-5-0-0-1-3---3-1-0-3-1-0----|
C|-3-1-0---10-0-0-1-3---3-1-------3-1-0---10-0--------3-1-0------0-0-1-3---3-1-0-3-1-0----|
                                                                   *
Pt.2
D|---------------------------------------------------------------------------|
A|---------------------------------------------------------------------------|
F|---------------------------------------------------------------------------|
C|---------------------------------------------------------------------------|
G|0-0---10h12-------------10h12-------------999-333--------------------------|
C|0-0-0-------0-0-10h12-0--------10h12---------------------------------------|
      *       *          


Chorus
D|---------------------------------------------------------------------------|
A|---------------------------------------------------------------------------|
F|---------------------------------------------------------------------------|
C|---------------------------------------------------------------------------|
G|-555555-0-88888888--555555-0-33333333--(x2)--555555-0-8--------------------|
C|-555555-0-88888888--555555-0-33333333--------555555-0-8--------------------|
          *                  *                        *














************************************
| *   Palm Mute
| h   Hammer-on
| ~   Ring Out
| n   Natural Harmonic
************************************

            
            
Suggest correction
Creating personal tab
Creating personal tab
You can edit any tab online and save it as your Personal.

You can edit, replace or remove any tab part or add personal notes – all changes will be seen only by you.

Personal tabs can be accessed anytime from any device, even offline.
Learn more »
Give kudos to tab author, rate the tab!
1 2 3 4 5
comments
print report bad tab
2 comments total.
0 reply
vppark2 1,820 Apr 20, 2016 11:53 AM

Umm...I got something else for the main riffs. I'm nearly 100% sure it's a pull off on the 12th fret, not 10th..

0 reply
tybates99 269 Apr 20, 2016 12:00 PM

I didn't even realize I put pull off. It was supposed to be 10h12.

guest
You may want to rate the tab now too:
select rating
Wanna post a correction for this tab? Suggest correction