Oops, an error
Loading. Please wait.

The Hounds Of Anubis Tab

version 1
version 1

Solo

Whole song

Interactive

5,138 views 1 this week
no commentswrite comment
1 2 3 4 5
excellent!
x 3
add to favorites
launch autoscroll
font size
0
reset
how to read this tab
guitar tuner
Tab Pro tools
  • play this tab
  • loop segment
  • change instrument
  • show fretboard
  • metronome
×
Best way to learn
"The Hounds Of Anubis"
Autoscroll
slow
fast
+/-
esc
set tempo
stop
Contributor
Difficulty
Tuning
intermediate
C G C F A D
-------------------------------------------------------------------------------
                             The hounds of anubis - The word alive
-------------------------------------------------------------------------------
Tabbed by:Zwhammack
Email:atv487@aol.com

Tuning:DroppedC

This is my 3rd "twa" tab and i think i did pretty good on it. Its a little sketchy 
for some parts, but it works.

Any questions? just ask.

Pre solo

gtr1
e|----14--11------11---------------------------------------------------------|
B|------------13------13--10--13--10------10---------------------------------|
G|------------------------------------12------11--8--11--8-------------------|
D|---------------------------------------------------------------------------|
A|---------------------------------------------------------------------------|
E|---------------------------------------------------------------------------|

gtr2
e|----17--14------14---------------------------------------------------------|
B|------------16------16--13--16--13------13---------------------------------|
G|------------------------------------14------14--11--14--11-----------------|
D|---------------------------------------------------------------------------|
A|---------------------------------------------------------------------------|
E|---------------------------------------------------------------------------|


Palm mute this section
gtr1            
e|---------------------------------------------------------------------------|
B|--------------8--10--8-----------------------------------------------------|
G|----7--8--11------------11--8--7-7-7--7-7-7--------------------------------|
D|---------------------------------------------------------------------------|
A|---------------------------------------------------------------------------|
E|---------------------------------------------------------------------------|

gtr2
e|--------------7--8--7------------------------------------------------------|
B|----7--8--10-----------10--8--7-7-7--7-7-7---------------------------------|
G|---------------------------------------------------------------------------|
D|---------------------------------------------------------------------------|
A|---------------------------------------------------------------------------|
E|---------------------------------------------------------------------------|


Zack's solo
e|-------------------------------------------10--11--14--11--10--------------|
B|--------------------------------8--10--11----------------------11--10------|
G|----------------------7--8--11---------------------------------------------|
D|-------------5--7--8-------------------------------------------------------|
A|----5--6--9----------------------------------------------------------------|
E|---------------------------------------------------------------------------|

e|---------------------------------------------------------------------------|
B|----8------8/11----10------------------------------------------------------|
G|------------------------7------7/11----10----------------------------------|
D|---------------------------------------------------------------------------|
A|---------------------------------------------------------------------------|
E|---------------------------------------------------------------------------|

e|---------------------------------------------------------------------------|
B|------------------------------------------8-10-11-8-10-11-8~---11-11-11~---|
G|----------------------------7-8-11-7-8-11----------------------------------|
D|----------------5-7-8-5-7-8------------------------------------------------|
A|----5-6-9-5-6-9------------------------------------------------------------|
E|---------------------------------------------------------------------------|
                   T                 T                 T
e|----15-15-15br---15p14p11p10h11h14-15p14p11p10h11h14-15p14p11p10h11h14-----|
B|---------------------------------------------------------------------------|
G|---------------------------------------------------------------------------|
D|---------------------------------------------------------------------------|
A|---------------------------------------------------------------------------|
E|---------------------------------------------------------------------------|
      T
e|----17/20\17p14p11p10------------------------------------------------------|
B|---------------------------------------------------------------------------|
G|---------------------------------------------------------------------------|
D|---------------------------------------------------------------------------|
A|---------------------------------------------------------------------------|
E|---------------------------------------------------------------------------|

Tony's solo X( 
e|---------------------------------------------------------------------------|
B|-----------------/11p8-----------------------------/14p11------------------|
G|------------------------9p6-------------------------------12p9-------------|
D|------------5h8-------------8p5---------------8h11-------------8p11--------|
A|--------4h7---------------------7p4------7h10-----------------------10p7---|
E|----5h8-----------------------------8h11-----------------------------------|

e|---------------------------------------------------------------------------|
B|--------------------8/10~-----/11---10---8---7-----------------------------|
G|----------------6h9--------------------------------------------------------|
D|------------5h8------------------------------------------------------------|
A|--------4h7----------------------------------------------------------------|
E|----5h8--------------------------------------------------------------------|
 
                      4x                     4x
           T          T      T                T     T
e|----8h11-14------|--14p11-14p11p8--|-----|--17p14-17p14p11----|------------|
B|--7--------------|---------------h7|-----|----------------h10-|------------|
G|-----------------|-----------------|-----|--------------------|------------|
D|-----------------|-----------------|-----|--------------------|------------|
A|-----------------|-----------------|-----|--------------------|------------|
E|-----------------|-----------------|-----|--------------------|------------|

e|-------------------------------------------13-17-13------------------------|
B|----------------------------------------15----------15---------------------|
G|-------------------------------------14----------------14------------------|
D|----------------------12-14-15----15---------------------------------------|
A|-------------12-14-15----------17------------------------------------------|
E|----12-14-15---------------------------------------------------------------|

Thank you, enjoi.

************************************

| /   slide up
| \   slide down
| h   hammer-on
| p   pull-off
| ~   vibrato
| +   harmonic
| x   Mute note
| b   Bend
| pb  Pre-bend
| br  Bend release
| pbr Pre-bend release
| brb Bend release bend

************************************
comments
We did not receive enough feedback on this tab! Please rate:
print report bad tab
1 2 3 4 5
I want to post or [tab]
guest
You may want to rate the tab now too:
select rating
Please do not post tabs as comments. Select "correction" instead!