Oops, an error
Loading. Please wait.
1,306 views 6 this week
no commentswrite comment
1 2 3 4 5
x 4
add to favorites
×
Save as Personal and add changes to this tab that will be seen only by you. Learn more ›
×
You can save this tab as Personal to edit and correct it or add notes. All changes will be seen only by you. Learn more »
launch autoscroll
font size
0
reset
how to read this tab
guitar tuner
backing track
0:00
0:00
edit
Autoscroll
slow
fast
+/-
esc
set tempo
stop
-------------------------------------------------------------------------------
   GIG LIFE - The World is a Beautiful Place & I am No Longer Afraid to Die
-------------------------------------------------------------------------------

This is a tab for the lo-fi 7" version of the song (the superior one), not the one off 
Whenever, If Ever. Though I think the chords are pretty much the same for both versions.

I don't know the exact names for the chords, I just put them in a chord namer and this 
is what it called
them.

Tuning: STANDARD CAPO 2

   Asus4  Bm      Dm7(variation)    B5     A5
e|---------------------------------------------------------------------------|
B|---------------------------------------------------------------------------|
G|---------------------------------------------------------------------------|
D|--0------0-------0-----------------0-----0---------------------------------|
A|--0------2-------4-----------------9-----7---------------------------------|
E|-----------------------------------7-----5---------------------------------|


VERSE 1

Asus4                            Bm                                    Dm7
You ran away, you were afraid to make mistakes, but that's the biggest one you made and 
it's unfortunate.

[little fill]
e|---------------------------------------------------------------------------|
B|---------------------------------------------------------------------------|
G|---------------------------------------------------------------------------|
D|---0-0--0--0-0-0-0-0-0-0-0-0-----------------------------------------------|
A|--10-10-10-9-9-9-7-7-7-9-9-9-----------------------------------------------|
E|---------------------------------------------------------------------------|

Asus4                               Dm7                            Dm7
You hit the road, yeah you finally left your home somewhere to the west I suppose and I 
feel bad for you.

[little fill]
e|---------------------------------------------------------------------------|
B|---------------------------------------------------------------------------|
G|---------------------------------------------------------------------------|
D|---0-0--0--0-0-0-0-0-0-0-0-0-0-0-0-0-0-0-0-0-0-0-0-0-----------------------|
A|--10-10-10-9-9-9-7-7-9-9-9-9-9-9-9-9-9-9-9-9-9-9-9-9-----------------------|
E|---------------------------------------------------------------------------|


CHROUS

B5                               A5
Cause you'll be home soon and I won't wait for you. This is gig life.

[little fill]
e|---------------------------------------------------------------------------|
B|---------------------------------------------------------------------------|
G|----------------------------------------------------------2----------------|
D|--------------------------------------------------4-2-0--------------------|
A|-0-0-0-0-0-0-0-0-0-0-0-0-0-0-0-0-0-0-0-0-0-0-0-0--------4------------------|
E|-7-7-7-2-2-2-3-3-3-3-3-3-3-3-3-7-7-7-2-2-2-3-3-3---------------------------|


VERSE 2

Asus4                        Bm                          Dm7
I stared out a lake off the highway in the West Virginia mid-day and it was perfect.

[little fill]
e|---------------------------------------------------------------------------|
B|---------------------------------------------------------------------------|
G|---------------------------------------------------------------------------|
D|---0-0--0--0-0-0-0-0-0-0-0-0-----------------------------------------------|
A|--10-10-10-9-9-9-7-7-7-9-9-9-----------------------------------------------|
E|---------------------------------------------------------------------------|

Asus4                              Bm               Dm7
Not sure where I'll be next maybe Texas or Athens, OH, Philadelphia, Pa.

[little fill]
e|---------------------------------------------------------------------------|
B|---------------------------------------------------------------------------|
G|---------------------------------------------------------------------------|
D|---0-0--0--0-0-0-0-0-0-0-0-0-0-0-0-0-0-0-0-0-0-0-0-0-----------------------|
A|--10-10-10-9-9-9-7-7-9-9-9-9-9-9-9-9-9-9-9-9-9-9-9-9-----------------------|
E|---------------------------------------------------------------------------|


CHORUS


B5                               A5
Now it's just rival schools and mewithoutYou on our car rides.

[little fill]
e|---------------------------------------------------------------------------|
B|---------------------------------------------------------------------------|
G|----------------------------------------------------------2----------------|
D|--------------------------------------------------2-4-0-------0------------|
A|-0-0-0-0-0-0-0-0-0-0-0-0-0-0-0-0-0-0-0-0-0-0-0-0--------4-----0------------|
E|-7-7-7-2-2-2-3-3-3-3-3-3-3-3-3-7-7-7-2-2-2-3-3-3---------------------------|

            
            
Suggest correction
Creating personal tab
Creating personal tab
You can edit any tab online and save it as your Personal.

You can edit, replace or remove any tab part or add personal notes – all changes will be seen only by you.

Personal tabs can be accessed anytime from any device, even offline.
Learn more »
comments
print report bad tab
guest
You may want to rate the tab now too:
select rating
Wanna post a correction for this tab? Suggest correction