Oops, an error
Loading. Please wait.
2,942 views 3 this week
2 commentsread comments
1 2 3 4 5
x 9
add to favorites
×
Save as Personal and add changes to this tab that will be seen only by you. Learn more ›
×
You can save this tab as Personal to edit and correct it or add notes. All changes will be seen only by you. Learn more »
launch autoscroll
font size
0
reset
how to read this tab
guitar tuner
edit
Autoscroll
slow
fast
+/-
esc
set tempo
stop
Author
Difficulty
Unregistered
Verse
   Esus2       D#m         B             G#m7
e|---------------------------------------------------------------|
B|---------------------------------------------------------------|
G|---------------------------------------------------------------|
D|--4--4--4--4--4--4--4--4--4--4--4--4--4--4--4--4---------------|
A|-7--7--7--7--6--6--6--6----------------------------------------|
E|-------------------------7--7--7--7--4--4--4--4----------------|

Chorus (breathe in deep...)
    Emaj7                                           G#maj7       F#m6       Emaj7 
e|----------------------------------------------------------------------------------------------|
B|----------------------------------------------------------------------------------------------|
G|----------------------------------------------------------------------------------------------|
D|-----1------1-----1-----1-----1-----1-----1----1------4-----4----4-----4------1----------1----|
A|---2-----2-----2-----2-----2-----2-----2-----2-----6----6------2----2-----2-----2---4--2-----2|
E|-0--0--0--0--0--0--0--0--0--0--0--0--0--0--0--0--4--4--4--4--2--2--2--2--0--0--0--0--0--0--0--|

Outro (we are all the same...)

  Emaj7   F#m6   Emaj7
e|---------------------------------------------------------------|
B|---------------------------------------------------------------|
G|---------------------------------------------------------------|
D|-1------4------1-----------------------------------------------|
A|-2------2------2-----------------------------------------------|
E|-0------2------0-----------------------------------------------|

Verse x4
Chorus
Verse x4
Outro

we can't change
this place the way
it changes us
the parking lot
where we lay
is more than home now

breathe
in
deep
please
breathe
in
deep

the light bleeds through
the window pane
into our eyelids
our bodies
drown in sheets
anchored, exhausted
count the stains
one by one
up on the ceiling
the echoes race
around the room
they sing together

we
are all
all the same

            
            
Suggest correction
Creating personal tab
Creating personal tab
You can edit any tab online and save it as your Personal.

You can edit, replace or remove any tab part or add personal notes – all changes will be seen only by you.

Personal tabs can be accessed anytime from any device, even offline.
Learn more »
comments
print report bad tab
2 comments total.
0 reply
xpt93 21 Sep 07, 2013 10:43 AM

thanks a lot for this!

+2 reply
LisTenToThriCe 49 Dec 02, 2013 08:14 PM

e|---------------------------------------------------------------|
B|---------------------------------------------------------------|
G|--------------------------11----11----9----9----------------|
D|--4---/9--8-9/11-11/13-------13----13---13---13--(2 times)----|
A|-7--7------------------------------------------------------|
E|--------------------------------------------------------|

this is what the 2nd guitar plays during the verses

guest
Wanna post a correction for this tab? Suggest correction