Oops, an error
Loading. Please wait.

You Cant Live There Forever tab

version 1
version 1

Whole song

Interactive

4,021 views 24 this week
3 commentsread comments
1 2 3 4 5
x 6
add to favorites
×
Save as Personal and add changes to this tab that will be seen only by you. Learn more ›
×
You can save this tab as Personal to edit and correct it or add notes. All changes will be seen only by you. Learn more »
launch autoscroll
font size
0
reset
how to read this tab
guitar tuner
edit
Autoscroll
slow
fast
+/-
esc
set tempo
stop
-------------------------------------------------------------------------------
                You Can't Live There Forever - The World Is...
-------------------------------------------------------------------------------
Tabbed by: Joe H
E-mail: joey2_96@yahoo.com

Tuning: D/G/C/F/A/D Capo 1 or Half step down

This tab is going to be pretty long just for the sake of having most of the variations present

Intro:
X2
e|---------------------------------------------------------------------------|
B|---------------------------------------------------------------------------|
G|-------------0---0---0---0---0---0---0-------------------------------------|
D|--------------+------------------------------------------------------------|
A|------0h3------------------------------------------------------------------|
E|--0h3------3---3---3---3---3---3---3---------------------------------------|

X2
e|---------------------------------------------------------------------------|
B|-----------------0---------------------------------------------------------|
G|-------------0-------0-------0---0---0---------------------------------------|
D|-------------------------0-------------------------------------------------|
A|------0h3------------------------------------------------------------------|
E|--0h3------3---3---3---3---3---3---3---------------------------------------|


e|---------------------------------------------------------------------------|
B|-----------------0-------0-------------------------------------------------|
G|-------------0-------0-------0---0---0-------------------------------------|
D|---------------------------------------------------------------------------|
A|------0h3------------------------------------------------------------------|
E|--0h3------3---3---3---3---3---3---3---------------------------------------|

e|---------------------------------------------------------------------------|
B|-----------------0---------------------------------------------------------|
G|-------------0-------0-------0---0---0-------------------------------------|
D|-------------------------0-------------------------------------------------|
A|------0h3------------------------------------------------------------------|
E|--0h3------3---3---3---3---3---3---3---------------------------------------|

Verse:
e|---------------------------------------------------------------------------|
B|---------------------------------------------------------------------------|
G|-----------0---0---0---0---0---0---0---0---0---0---0---0---0---0---0---0---|
D|---------------------------------------------------------------------------|
A|-----0h3-------------------------------------------------------------------|
E|-0h3-----3---3---3---3---3---3---3---3---3---3---3---3---3---3---3---3-----|

X2 "Shove into your mouth..."
e|---------------------------------------------------------------------------|
B|---------------------------------------------------------------------------|
G|----0---0---0---0---0---0---0---0------------------------------------------|
D|---------------------------------------------------------------------------|
A|---------------------------------------------------------------------------|
E|--7---7---8---8---3---3---3---3--------------------------------------------|

Chorus:
"It's better than living in the light..."
e|---------------------------------------------------------------------------|
B|---------------------------------------------------------------------------|
G|-----0----0---0---0---0---0---0---0----------------------------------------|
D|---------------------------------------------------------------------------|
A|---------------------------------------------------------------------------|
E|--12---10---8---7---8---8---8---8------------------------------------------|

e|---------------------------------------------------------------------------|
B|---------------------------------------------------------------------------|
G|-----0----0---0---0---0---0---0---0----------------------------------------|
D|---------------------------------------------------------------------------|
A|---------------------------------------------------------------------------|
E|--12---10---8---7---8---8---8---8------------------------------------------|

e|---------------------------------------------------------------------------|
B|---------------------------------------------------------------------------|
G|-------------0---0---0---0---0---0---0---0---------------------------------|
D|---------------------------------------------------------------------------|
A|------0h3------------------------------------------------------------------|
E|--0h3------3---3---3---3---3---3---3---3-----------------------------------|

"You're harmless in your mind"
e|---------------------------------------------------------------------------|
B|---------------------------------------------------------------------------|
G|-----0----0---0---0---0---0---0---0----------------------------------------|
D|---------------------------------------------------------------------------|
A|---------------------------------------------------------------------------|
E|--12---10---8---7---8---8---8---8------------------------------------------|

"You're formless in your mind"
e|---------------------------------------------------------------------------|
B|---------------------------------------------------------------------------|
G|-----0----0---0---0---0---0---0---0----------------------------------------|
D|---------------------------------------------------------------------------|
A|---------------------------------------------------------------------------|
E|--12---10---8---7---8---8---8---8------------------------------------------|

X2
e|---------------------------------------------------------------------------|
B|-----------------0---------------------------------------------------------|
G|-------------0-------0---0---0---0---0-------------------------------------|
D|---------------------------------------------------------------------------|
A|------0h3------------------------------------------------------------------|
E|--0h3------3---3---3---3---3---3---3---------------------------------------|

e|---------------------------------------------------------------------------|
B|-----------------0---------------------------------------------------------|
G|-------------0-------0-------0---0-----------------------------------------|
D|-------------------------0-------------------------------------------------|
A|------0h3------------------------------------------------------------------|
E|--0h3------3---3---3---3---3---3---3---------------------------------------|

e|---------------------------------------------------------------------------|
B|-----------------0---------------------------------------------------------|
G|-------------0-------0---0---0---0---0-------------------------------------|
D|---------------------------------------------------------------------------|
A|------0h3------------------------------------------------------------------|
E|--0h3------3---3---3---3---3---3---3---------------------------------------|

Chorus again:
"What do you think is going right..."
e|---------------------------------------------------------------------------|
B|---------------------------------------------------------------------------|
G|-----0----0---0---0---0---0---0---0----------------------------------------|
D|---------------------------------------------------------------------------|
A|---------------------------------------------------------------------------|
E|--12---10---8---7---8---8---8---8------------------------------------------|

e|---------------------------------------------------------------------------|
B|---------------------------------------------------------------------------|
G|----0---0---0---0---0---0---0---0------------------------------------------|
D|---------------------------------------------------------------------------|
A|---------------------------------------------------------------------------|
E|--3---3---3---3---3---3---3---3--------------------------------------------|

"What can you know about life..."
e|---------------------------------------------------------------------------|
B|---------------------------------------------------------------------------|
G|-----0----0---0---0---0---0---0---0----------------------------------------|
D|---------------------------------------------------------------------------|
A|---------------------------------------------------------------------------|
E|--12---10---8---7---8---8---8---8------------------------------------------|

e|---------------------------------------------------------------------------|
B|---------------------------------------------------------------------------|
G|-------------0---0---0---0---0---0---0-------------------------------------|
D|---------------------------------------------------------------------------|
A|------0h3------------------------------------------------------------------|
E|--0h3------3---3---3---3---3---3---3---------------------------------------|

X2
e|---------------------------------------------------------------------------|
B|-----------------0---------------------------------------------------------|
G|-------------0-------0-------0---0---0-------------------------------------|
D|-------------------------0-------------------------------------------------|
A|------0h3------------------------------------------------------------------|
E|--0h3------3---3---3---3---3---3---3---------------------------------------|

"You think that the world is alright..."
e|---------------------------------------------------------------------------|
B|---------------------------------------------------------------------------|
G|-----0----0---0---0---0---0---0---0----------------------------------------|
D|---------------------------------------------------------------------------|
A|---------------------------------------------------------------------------|
E|--12---10---8---7---8---8---8---8------------------------------------------|

e|---------------------------------------------------------------------------|
B|---------------------------------------------------------------------------|
G|------------0---0---0---0---0---0---0---0----------------------------------|
D|---------------------------------------------------------------------------|
A|------0h3------------------------------------------------------------------|
E|--0h3-----3---3---3---3---3---3---3---3------------------------------------|

"Cause we're afraid to die..."
e|---------------------------------------------------------------------------|
B|---------------------------------------------------------------------------|
G|-----0----0---0---0---0---0---0---0---0---0---0----------------------------|
D|---------------------------------------------------------------------------|
A|---------------------------------------------------------------------------|
E|--12---10---8---7---8---8---8---8---8---8---8------------------------------|

e|---------------------------------------------------------------------------|
B|---------------0-----------------------------------------------------------|
G|-----------0-------0---0---0---0---0---0---0---0---0---0---0---0---0---0---|
D|---------------------------------------------------------------------------|
A|-----0h3-------------------------------------------------------------------|
E|-0h3-----3---3---3---3---3---3---3---3---3---3---3---3---3---3---3---3-----|

Bridge:
I'm 90% sure there's more going on, but this work for the moment
X22
e|---------------------------------------------------------------------------|
B|-------------------------0-------------------------------------------------|
G|---------------------------------------------------------------------------|
D|----5---5---9---9---10-------10---10---------------------------------------|
A|---------------------------------------------------------------------------|
E|--3---3---7---7---8----8---8----8------------------------------------------|

Ending: 
I'm also a little unsure of this part, but edit it when i figure it out for sure
X2
e|---------------------------------------------------------------------------|
B|---------------------------------------------------------------------------|
G|----0---0---0---0---0---0---0---0------------------------------------------|
D|---------------------------------------------------------------------------|
A|---------------------------------------------------------------------------|
E|--3---3---0---0---3---3---3---3--------------------------------------------|



************************************

| /   slide up
| \   slide down
| h   hammer-on
| p   pull-off
| ~   vibrato
| +   harmonic
| x   Mute note
| b   Bend
| pb  Pre-bend
| br  Bend release
| pbr Pre-bend release
| brb Bend release bend

************************************

            
            
Suggest correction
Creating personal tab
Creating personal tab
You can edit any tab online and save it as your Personal.

You can edit, replace or remove any tab part or add personal notes – all changes will be seen only by you.

Personal tabs can be accessed anytime from any device, even offline.
Learn more »
comments
print report bad tab
3 comments total.
0 reply
helpweresunk 10 Oct 18, 2015 04:30 PM, edited at 08:30 pm

This isn't very accurate. For example, the 5 on the D string should just be an open G string, and it's not changed in the chorus (only the bass note changes)

-1 reply
undefinedcolton 10 Jan 27, 2016 02:03 PM

the guitar pro tabs are far more accurate than this. this is not so bad of a starting point, but it only points you in the wrong directions.

guest
Wanna post a correction for this tab? Suggest correction