Oops, an error
Loading. Please wait.

Good Kind Tab

version 1
version 1

Whole song

9,232 views 1 this week
no commentswrite comment
1 2 3 4 5
x 3
add to favorites
launch autoscroll
font size
0
reset
how to read this tab
guitar tuner
Autoscroll
slow
fast
+/-
esc
set tempo
stop
Help us to improve Ultimate-Guitar.com Take our survey!
×
Author
Difficulty
intermediate
-------------------------------------------------------------------------------
                         THE GOOD KIND - The Wreckers
-------------------------------------------------------------------------------

Tabbed by: Steph         
Email: clichedplatitude@hotmail.com

Tuning: standard
Guitar 1: capo on seventh fret
Guitars 2 and 3: capo on second fret

Intro:

Guitar 1:
      D Dsus D    Dsus
Guitar 3:
e|---------------------------------|
B|--10--------9-7------------------|
G|----------------9--(4-7-4-7-9)---|
D|---------------------------------|
A|---------------------------------|
E|---------------------------------|

Verse 1:

Guitar 1:
        D                Dsus
'Do you wanna run away together?'
        D                       Dsus
I would say it was your best line ever.
          D              Dsus
Too bad I fell for it...
      D            Dsus
And I walked along,
            D                Dsus
Waiting for you to come along.
                 D                 Dsus
Take my tortured heart by the hand.
             Em
And write me off.

Guitar 2:
      Cadd9      Emsus   G
And I walked along,
      Emsus Cadd9           Emsus   G
Waiting for you to come along.
          Emsus  Cadd9          Emsus   G
Take my tortured heart by the hand.
             Am
And write me off. 


Chorus 1:

Guitar 1:
              D     Dsus
Do you know I cry?
              D     Dsus
Do you know I die?
              D     Dsus
Do you know I cry?
                 D           Dsus
And it's not the good kind...

Guitar 2:
              Cadd9  D
Do you know I cry?
              Cadd9  D
Do you know I die?
              Cadd9  D
Do you know I cry?
                 Cadd9       G
And it's not the good kind... 

Solo 1: 

Guitar 1: D                 Dsus     D           Dsus

Guitar 2: Emsus Cadd9 Emsus G  Emsus Cadd9 Emsus G

Guitar 3:
e|---------------------------------------------------------------------------|
B|---------------------------------------------------------------------------|
G|------0-0-2/4--7-9-0------0-0-2/4^-4-2-0-----------------------------------|
D|--0-2-----------------0-2--------------------------------------------------|
A|---------------------------------------------------------------------------|
E|---------------------------------------------------------------------------|
Verse 2:
Guitar 1:
    D                   Dsus
You forced me to become strong.
    D                   Dsus           D Dsus   
And I just cried, being weak. 
        D              Dsus
And you think you know.
            D               Dsus
And I would like to think so,
           D                    Dsus
But do you know that when you go,
        Em
I fall apart.

Guitar 2:
    Cadd9          Emsus G
You forced me to become strong.
Emsus Cadd9           Emsus   G  Emsus Cadd9 Emsus   G
And I just cried, being weak. 
Emsus  Cadd9      Emsus   G
And you think you know.
      Emsus Cadd9        Emsus   G
And I would like to think so,
     Emsus Cadd9           Emsus   G
But do you know that when you go,
        Am
I fall apart.

Guitar 3:
e|--------------------------|
B|--------------------------|
G|--4/5-4-2-0---------------|
D|------------2-------------|
A|--------------------------|
E|--------------------------|

Chorus 2:

Guitar 1:
              D     Dsus
Do you know I cry?
              D     Dsus
Do you know I die?
              D     Dsus
Do you know I cry?
                 D           Dsus
And it's not the good kind...
                 D           Dsus
No, it's not the good kind...

Guitar 2:
              Cadd9  D
Do you know I cry?
              Cadd9  D
Do you know I die?
              Cadd9  D
Do you know I cry?
                 Cadd9       G
And it's not the good kind... 
                 Cadd9       G
No, it's not the good kind...

Solo 2:

Guitar 1: D                 Dsus     D           Dsus

Guitar 2: Emsus Cadd9 Emsus G  Emsus Cadd9 Emsus G

Guitar 3:
e|---------------------------------------------------------------------------|
B|---------------------------------------------------------------------------|
G|------0h2-2/4--7-9-0------0-0-2/4-2/4-2-0----------------------------------|
D|--0-2-----------------0-2-----------------2--------------------------------|
A|---------------------------------------------------------------------------|
E|---------------------------------------------------------------------------|
Bridge:

Guitar 1:
Am                    C
I'm tired of hiding behind these lying eyes,
Em                           G
I'm tired of this smile that even I don't recognize.

Guitar 2:
Em                    D
I'm tired of hiding behind these lying eyes,
Am                           D
I'm tired of this smile that even I don't recognize 

Chorus 3:

Guitar 1:
              D     Dsus
Do you know I cry?
              D     Dsus
Do you know I die?
              D     Dsus
Do you know I cry?
                 D           Dsus
And it's not the good kind...

Guitar 2:
             Cadd9  Emsus   G
Do you know I cry?
       Emsus Cadd9  Emsus   G
Do you know I die?
        Emsus Cadd9 Emsus   G
Do you know I cry?
            Emsus Cadd9           Emsus   G
And it's not the good kind... 

Guitar 3:
e|---------------------------------------------------------------------|
B|--7/8-7-5-2/3--------------------------------------------------------|
G|--------------4^-2-0-------------------------------------------------|
D|---------------------------------------------------------------------|
A|---------------------------------------------------------------------|
E|---------------------------------------------------------------------|
Chorus 4:

Guitar 1:
              D     Dsus
Do you know I cry?
              D     Dsus
Do you know I die?
              D     Dsus
Do you know I cry?
                 D           Dsus
And it's not the good kind...

Guitar 2:
              Cadd9  D
Do you know I cry?
              Cadd9  D
Do you know I die?
              Cadd9  D
Do you know I cry?
                 Cadd9       G
And it's not the good kind... 

Guitar 1: 
                  D          Dsus
No, you're not the good kind.
     D     Dsus
Good kind
                   D         Dsus
No, you're not the good kind.
     D     Dsus
Good kind
                   D         Dsus
No, you're not the good kind.


Ending:

Guitar 2:
             Em
e|-----------0----------------------------------------------------------------|
B|-----------0----------------------------------------------------------------|
G|-/2-0------0----------------------------------------------------------------|
D|------2-0--2----------------------------------------------------------------|
A|-----------2----------------------------------------------------------------|
E|-----------0----------------------------------------------------------------|

| /  slide up
| \  slide down
| h  hammer-on
| p  pull-off
| ~  vibrato
| +  harmonic
| x  Mute note
===============================================================================
Suggest correction
Give kudos to tab author, rate the tab!
1 2 3 4 5
comments
print report bad tab
guest
You may want to rate the tab now too:
select rating
Wanna post a correction for this tab? Suggest correction