Oops, an error
Loading. Please wait.

Hard To Love You Tab

1,485 views 1 this week
1 commentread comment
1 2 3 4 5
please rate
add to favorites
launch autoscroll
font size
0
reset
how to read this tab
guitar tuner
Autoscroll
slow
fast
+/-
esc
set tempo
stop
Help us to improve Ultimate-Guitar.com Take our survey!
×
Author
Difficulty
novice
I'm pretty sure this song has a capo on the first fret but you dont need it to play the 
so here it is:

E------6---5---3------------|
B----6---6---6---6--4--3----|
G--3---------------------3--|
D---------------------------|
A---------------------------|
E---------------------------|


I like this riff its pretty cute:)
Suggest correction
Give kudos to tab author, rate the tab!
1 2 3 4 5
comments
print report bad tab
1 comment total.
0 reply
leavethepieces 1,728 wrote on October 3 2006, 10:27 am

There's actually a capo on third =) so I play it like this...

e|-----3---2-----0---------|
B|---3---3---3-----3---1-0-|
G|-0-----------0-----0-----|
D|-------------------------|
A|-------------------------|
E|-------------------------|

guest
You may want to rate the tab now too:
select rating
Wanna post a correction for this tab? Suggest correction