Oops, an error
Loading. Please wait.

Leave The Pieces Chords

version 2
version 2

Video

198,654 views 189 this week
17 commentsread comments
1 2 3 4 5
excellent!
x 80
add to favorites
launch autoscroll
font size
0
reset
transpose
0
reset
simplify chords
display chords
guitar tuner
Tab Pro tools
  • play this tab
  • loop segment
  • change instrument
  • show fretboard
  • metronome
×
Best way to learn
"Leave The Pieces"
Autoscroll
slow
fast
+/-
esc
set tempo
stop
Contributor
Difficulty
-------------------------------------------------------------------------------
                       LEAVE THE PIECES – The Wreckers
-------------------------------------------------------------------------------
Tabbed by: Krista
Email: leavethepieces@gmail.com

Tuning: 1/2 Step Down (Eb Ab Db Gb Bb Eb)



   D  Dsus2 Dsus4 G   Em7 Cadd9  F    C    Bb
e|-2----0----3----3----3----3----1----0----1-|
B|-3----2----3----3----3----3----1----1----3-|
G|-2----3----2----0----0----0----2----0----3-|
D|-0----0----0----0----2----2----3----2----3-|
A|-x----x----x----2----2----3----3----3----1-|
E|-x----x----x----3----0----0----1----0----1-|

*note* you can pick or strum the chords below the picking

Intro:

e|-------0h2-2-2-3-2-0-------------------0h2-2-2-3-2-0-----|
B|-0h1-3---------------3-1-1/3-1-0-0h1-3---------------3-1-|
G|---------------------------------------------------------|
D|---------------------------------------------------------|
A|---------------------------------------------------------|
E|---------------------------------------------------------|

(D Em7 Cadd9 G D Em7 Cadd9)

Verse 1:

           D
You’re not sure that you love me
               Em7
But you’re not sure enough to let me go
Cadd9
Baby it ain’t fair you know
        Cadd9   G        D
To just keep me hangin’ ‘round

           D                   
You say you don’t wanna hurt me
Em7
Don’t want to see my tears
   Cadd9
So why are you still standing here
     Cadd9 (let ring)
Just watching me drown    

Chorus:

    G                  Cadd9  
And it’s alright, yeah I’ll be fine
      D
Don’t worry ‘bout this heart of mine
    G          Cadd9            D
Just take your love and hit the road
        G               Cadd9  
There’s nothing you can do or say
             D
You’re gonna break my heart anyway
       Cadd9      G               D
So just leave the pieces when you go

e|-------0h2-2-2-3-2-0-------------|
B|-0h1-3---------------3-1-1/3-1-0-|
G|---------------------------------|
D|---------------------------------|
A|---------------------------------|
E|---------------------------------|

(D Em7 Cadd9 G)

Verse 2:

       D
You can drag out the heartache  
Em7                             
Baby you can make it quick
Cadd9
Really get it over with
         Cadd9  G    D
And just let me move on

D                     
Don’t concern yourself
Em7  
With this mess you’ve left for me
Cadd9
I can clean it up, you see
        Cadd9 (let ring)
Just as long as you’re gone

Chorus:

    G                  Cadd9  
And it’s alright, yeah I’ll be fine
      D
Don’t worry ‘bout this heart of mine
    G          Cadd9            D
Just take your love and hit the road
        G               Cadd9  
There’s nothing you can do or say
             D
You’re gonna break my heart anyway
       Cadd9      G               D
So just leave the pieces when you go

Bridge:

F
You not making up your mind
   C
Is killing me and wasting time
Bb
I need so much more than that
G           Cadd9            D
Yeah, yeah, yeah, yeah, yeah

G Cadd9 D, G Cadd9 D, Cadd9 G D

Chorus: [softly, picking the chords if you want]

    G                  Cadd9  
And it’s alright, yeah I’ll be fine
      D
Don’t worry ‘bout this heart of mine
    G          Cadd9            D
Just take your love and hit the road

[normal strumming]

        G               Cadd9  
There’s nothing you can do or say
             D
You’re gonna break my heart anyway
       Cadd9      G               D
So just leave the pieces when you go

Outro:

Cadd9     G                 D
Leave the pieces when you go
Ho, yeah
Cadd9     G                 D
Leave the pieces when you go
G           Cadd9       D
Yeah, yeah, yeah, yeah, yeah
G           Cadd9       D
Yeah, yeah, yeah, yeah, yeah
G           Cadd9       D
Yeah, yeah, yeah, yeah, yeah

Cadd9     G               D (let ring)
Leave the pieces when you go
comments
print report bad tab
17 comments total. Showing first comments.
0 reply
leavethepieces wrote on March 6 2006, 07:39 am

I accidentally reversed my F chord... it's actually 133211 from lowest to highest...!

0 reply
leavethepieces wrote on March 6 2006, 07:45 am

Here's what they should really be:

D G Cadd9 F C

e|-2---3---3---1---0---------------------------------------|
B|-3---3---3---1---1---------------------------------------|
G|-2---0---0---2---0---------------------------------------|
D|-0---0---2---3---2---------------------------------------|
A|-x---2---3---3---3---------------------------------------|
E|-x---3---0---1---0---------------------------------------|

I really should've double checked everything before submitting my first tab!

0 reply
Teap wrote on May 31 2006, 11:22 pm

good job. very nice tab.

I want to post or [tab]
guest
You may want to rate the tab now too:
select rating
Please do not post tabs as comments. Select "correction" instead!