Oops, an error
Loading. Please wait.

Leave The Pieces Tab

version 2
version 2

Whole song

Video

10,542 views 1 this week
4 commentsread comments
1 2 3 4 5
x 5
add to favorites
launch autoscroll
font size
0
reset
how to read this tab
guitar tuner
Autoscroll
slow
fast
+/-
esc
set tempo
stop
Help us to improve Ultimate-Guitar.com Take our survey!
×
Author
Difficulty
intermediate
-------------------------------------------------------------------------------
                       LEAVE THE PIECES – The Wreckers
-------------------------------------------------------------------------------Tabbed by: Steph
Email: clichedplatitude@hotmail.com

Tuning: standard
Capo on first fret (Capo 1)

Chords (relative to capo):

    C   Bb  F  Dm  Eb  Ab
e|--0---1---1---1---6---4--|
B|--1---3---1---3---8---4--|
G|--0---3---2---2---8---5--|
D|--2---3---3---0---8---6--|
A|--3---1---3---x---6---6--|
E|--x---x---1---x---x---4--|
Intro:

“Guitar 2”:
e|-------0-0-1-0----------------------0-0-1-0-----------------|
B|-----1---------3-1----------------1---------3-1-------------|
G|-2h3---------------3-3/5\3-2--2h3---------------3-----------|
D|------------------------------------------------------------|
A|------------------------------------------------------------|
E|------------------------------------------------------------|

Guitar 1:
          C                 Bb F   (F played first time only)
e|--------0--0--1--0--0-----1--1------|
B|(---1)--1--1--1--1--3--1--3--1------|
G|(2h3-)—-0--0--0--0--0-----3--2------|
D|--------2--2--2--2--2-----3--3------| x2
A|--------3--3--3--3--3-----1--3------|
E|--------x--x--x--x--x-----x--1------|
Verse 1:
           C
You're not sure that you love me
               Dm
But you're not sure enough to let me go
Bb
Baby, it ain't fair, you know,
        Bb      F        C
To just keep me hangin' 'round

            C
You say you don't wanna hurt me
Dm
Don't want to see me tears
   Bb
So why are you still standing here,
     F
Just watching me drown?

Chorus:
    F                  Bb
And it's alright, yeah I'll be fine,
      C
Don't worry 'bout this heart of mine,
     F         Bb               C
Just take your love and hit the road
        F               Bb
There's nothing you can do or say
             C    
You're gonna break my heart anyway
        Bb        F               C
So just leave the pieces when you go

(riff like intro)

Verse 2:
        C
You can drag out the heartache
Dm
Baby you can make it quick
Bb
Really get it over with
         Bb     F    C       
And just let me move on
C
Don't concern yourself
Dm
With this mess you've left for me
Bb
I can clean it up, you see
        F     
Just as long you're gone


Chorus:
    F                  Bb
And it's alright, yeah I'll be fine,
      C
Don't worry 'bout this heart of mine,
     F         Bb               C    (intro chord progression)
Just take your love and hit the road
        F               Bb
There's nothing you can do or say
             C    
You're gonna break my heart anyway
        Bb        F               C
So just leave the pieces when you go


Bridge:
Eb
You not making up your mind
   Bb  
Is killing me and wasting time
Ab                       Bb
I need so much more than that
F           Bb          C    (intro chord progression)
Yeah, yeah, yeah, yeah, yeah

solo: 

Guitar 1:  F Bb C   F Bb C   Bb F C
Guitar 2:
e|-------------------0h1-0---0-0h1---3-5-6-5-3-3/5-3---3/5-6--6\5-3--1--|
B|-------------3-----------3--------------------------------------------|
G|---0-2---3-5---3-5----------------------------------------------------|
D|-3-----3--------------------------------------------------------------|
A|----------------------------------------------------------------------|
E|----------------------------------------------------------------------|

e|--5h6-5-3-1h3h1-0-----------------------------------------------------|
B|----------------------------------------------------------------------|
G|----------------------------------------------------------------------|
D|----------------------------------------------------------------------|
A|----------------------------------------------------------------------|
E|----------------------------------------------------------------------|
Chorus:
    F                  Bb
And it's alright, yeah I'll be fine,
      C
Don't worry 'bout this heart of mine,
     F         Bb               C   
Just take your love and hit the road
        F               Bb
There's nothing you can do or say
             C    
You're gonna break my heart anyway
        Bb        F               C
So just leave the pieces when you go
        Bb        F               C
So just leave the pieces when you go
        Bb        F               C
So just leave the pieces when you go

Guitar 1:
F           Bb          C    
Yeah, yeah, yeah, yeah, yeah
F           Bb          C    
Yeah, yeah, yeah, yeah, yeah
F           Bb          C    
Yeah, yeah, yeah, yeah, yeah

Guitar 2:
e|----------------------------------|
B|-------------3--------------------|
G|---0-2---3-5---3-5--9/10\9-7-5-(3)|
D|-3-----3--------------------------| x3 ()=last time only
A|----------------------------------|
E|----------------------------------|

        Bb        F               C     
So just leave the pieces when you go


| /  slide up
| \  slide down
| h  hold
Suggest correction
comments
print report bad tab
4 comments total. Showing first comments.
0 reply
stimpytheturtle 102 Oct 30, 2006 12:24 PM

great tab :}

0 reply
macvsgp714 151 Jan 09, 2007 12:12 PM

this deserves 5 stars! awesome job!

0 reply
shaneb23 40 Mar 24, 2007 01:47 PM

No offense but the chords are completely wrong the chords for the song are Csus Gsus Dm D and then the d thats e:3
b:3
d:2
a:0
e:0

guest
You may want to rate the tab now too:
select rating
Wanna post a correction for this tab? Suggest correction