Oops, an error
Loading. Please wait.

Leave The Pieces Tab

version 3
version 3

Whole song

Video

4,205 views 1 this week
no commentswrite comment
1 2 3 4 5
please rate
add to favorites
launch autoscroll
font size
0
reset
how to read this tab
guitar tuner
Tab Pro tools
  • play this tab
  • loop segment
  • change instrument
  • show fretboard
  • metronome
×
Best way to learn
"Leave The Pieces"
Autoscroll
slow
fast
+/-
esc
set tempo
stop
Contributor
Difficulty
Capo
novice
2nd fret
----------------------------------------------------------------------------
                      LEAVE THE PIECES - The Wreckers                      
-----------------------------------------------------------------------------
Tabbed by: Mr. Saboteur
Email: a_roome_8@hotmail.com

Tuning: Capo on 2nd Fret

arranged for guitar
(CHORDS)
e|4---4---------4----------2---2--x----------------------------------------|
B|6---7---------6----------4---2--5----------------------------------------|
G|6---6---------8----------4---3--4----------------------------------------|
D|6---6---------6----------4---4--2----------------------------------------|
A|4---4---------4----------2---4--x----------------------------------------|
E|x---x---------x----------x---2--x----------------------------------------|
  C#  C#/Dbsus  C#/Dbadd9  B  F#  E

Intro (use acoustic)        |play only once through|
e|-----4--4-x-4-4-4--4--2---|2---2---2---4---------------------------------|
B|-----6--6-x-7-6-6--6--4---|4---2---2---6---------------------------------|
G|---6-6--6-x-6-6-8--6--4---|4---3---3---6---------------------------------|
D|6h8--6--6-x-6-6-6--6--4---|4---4---4---6---------------------------------|
A|-----4--4-x-4-4-4--4--2---|2---4---4---4---------------------------------|
E|-----x--x-x-x-x-x--x--x---|x---2---2---x---------------------------------|

Verse 1 (acoustic)
           C#
You're not sure that you love me
               B
But you're not sure enough to let me go
F#
Baby it ain't fair you know
        B       F#       C#
To just keep me hangin' 'round
            C#
You say you don't wanna hurt me
B        
Don't want to see my tears
   F#
So why are you still standing here
     F#(then pause)
Just watching me drown

Chorus (acoustic)
    C#   C#/Dbsus      C#   C#/Dbsus
And it's alright, yeah I'll be fine
      C#
Don't worry 'bout this heart of mine
     F#        B                C#
Just take your love and hit the road
        C#      C#/Dbsus C# C#/Dbsus
There's nothing you can do or say
             C#
You're gonna break my heart anyway
       B          F#              C# 
So just leave the pieces when you go

Fill in (Intro)

Verse 2 (with electric)
       C#
You can drag out the heartache 
B    
Baby you can make it quick
F#
Really get it over with
         B      F#   C#
And just let me move on
  
Don't concern yourself
B
With this mess you've left for me
F#
I can clean it up, you see
        F#(then pause)
Just as long as you're gone

[Chorus]

Bridge
E
You not making up your mind
   B                            E
Is killing me and wasting time
       B                 F#
I need so much more than that
                        C#
Yeah, yeah, yeah, yeah, yeah

Electric Solo (Chords are same as verse)
e|---------------------------------------------------------9---------------|
B|---------------------7-6---4/6-7---12-11-9-9h11-9---9h11---11p9----------|
G|-------------------------8--------------------------------------11-11----|
D|-------------------------------------------------------------------------|
A|---------2-4-6-2-4-------------------------------------------------------|
E|-2-4-6-2-----------------------------------------------------------------|

e|-------------------------------------------------------------------------|
B|12-11-9-9h11p9-----------------------------------------------------------|
G|---------------10--------------------------------------------------------|
D|-------------------------------------------------------------------------|
A|-------------------------------------------------------------------------|
E|-------------------------------------------------------------------------|

[Chorus](1st 3 lines just acoustic, then band kicks in)


| /  slide up
| \  slide down
| h  hammer-on
| p  pull-off
| ~  vibrato
| +  harmonic
| x  Mute note
===============================================================================
comments
We did not receive enough feedback on this tab! Please rate:
print report bad tab
1 2 3 4 5
I want to post or [tab]
guest
You may want to rate the tab now too:
select rating
Please do not post tabs as comments. Select "correction" instead!